Sugarcoma - Crazy Chords & Tabs

 

Crazy Chords & Tabs

Sugarcoma Chords & Tabs

Version: 2 Type: Tab 0 ratings
1 star 2 stars 3 stars 4 stars 5 stars
comments

Crazy Tab

easy song....very funny aswell. not that good but good that it takes the mick of britney
i think its correct here......see the order
Normal tuning

Mini-intro part...
e|------------------------------------------------------|
B|------------------------------------------------------|
G|-55---------------------------------------------------|
D|-55--55--66---------....then drums....----------------|
A|-33--55--66-------------------------------------------|
E|-----33--44-------------------------------------------|

Intro/Main riff
e|------------------------------------------------------|
B|------------------------------------------------------|
G|-55-----------------55555--55-----------------5-------|
D|-55--55--6666--555--55555--55--55--6666--555--5-------|
A|-33--55--6666--555--33333--33--55--6666--555--3-------|
E|-----33--4444--333-------------33--4444--333----------|

Verse
e|------------------------------------------------------|
B|------------------------------------------------------|
G|-55-----------------55555--55-----------------55555---|
D|-55--55--6666--555--55555--55--55--6666--555--55555---|
A|-33--55--6666--555--33333--33--55--6666--555--33333---|
E|-----33--4444--333-------------33--4444--333----------|  
 PM..................................................

Pre-Chorus
e|------------------------------------------------------|
B|------------------------------------------------------|
G|------------------------------------------------------|
D|-3-3333--5-5555--6-6666--5-5555-----------------------|
A|-3-3333--5-5555--6-6666--5-5555-----------------------|
E|-1-1111--3-3333--4-4444--3-3333-----------------------|

Chorus - Part A
e|------------------------------------------------------|
B|------------------------------------------------------|
G|-55-----------------55555-----------------------------|
D|-55--55--6666--555--55555-----------------------------|
A|-33--55--6666--555--33333-----------------------------|
E|-----33--4444--333------------------------------------|
[ Tab from: http://www.guitartabs.cc/tabs/s/sugarcoma/crazy_tab_ver_2.html ]
Chorus - Part B
e|------------------------------------------------------|
B|------------------------------------------------------|
G|-55---------------------------------------------------|
D|-55--55--6666--8-6-3333-------------------------------|
A|-33--55--6666--8-6-3333-------------------------------|
E|-----33--4444--6-4-1111-------------------------------|

Solo
e|------------------------------------------------------
B|-4-----33--------44---4-------------------------------
G|---5-5----5-3-00----5---5-5-4-5-7-5-------------------
D|------------------------------------------------------
A|------------------------------------------------------
E|------------------------------------------------------

Solo (cont.)
e|------------------------------------------------------|
B|-4-----33-----4-44---4--------------------------------|
G|---5-5----5-3------5---5-5-4-5-7-5--------------------|
D|------------------------------------------------------|
A|------------------------------------------------------|
E|------------------------------------------------------|

Outro - Part A
e|------------------------------------------------------|
B|------------------------------------------------------|
G|-55-----------------55555-----------------------------|
D|-55--55--6666--555--55555-----------------------------|
A|-33--55--6666--555--33333-----------------------------|
E|-----33--4444--333------------------------------------|

Outro - Part B
e|------------------------------------------------------|
B|------------------------------------------------------|
G|-55---------------------------------------------------|
D|-55--55--6666--888-66666------------------------------|
A|-33--55--6666--888-66666------------------------------|
E|-----33--4444--666-44444------------------------------|

Song Order:
Mini-intro part x1
Intro x1
Verse x2
Pre-Chorus x1
Chorus - Part A x2
Chorus - Part B x2
Chorus - Part A x1
Verse x2
Pre-chorus x1
Chorus - Part A x2
Chorus - Part B x2
Chorus - Part A x1
Solo x1
Pre-chorus x1
Chorus - Part A x2
Chorus - Part B x2
Chorus - Part A x1
Outro - Part A x2
Outro - Part B x1
Outro - Part A x1
Comments