Sugarcoma - Crazy Chords & Tabs

 

Crazy Chords & Tabs

Sugarcoma Chords & Tabs

Version: 1 Type: Tab 0 ratings
1 star 2 stars 3 stars 4 stars 5 stars
comments

Crazy Tab

#----------------------------------PLEASE NOTE--------------------------------#
#This file is the author's own work and represents their interpretation of the#
#song. You may only use this file for private study, scholarship, or research.#
#-----------------------------------------------------------------------------#
#--                           _\m/   Rock On   \m/_                         --#
#-----------------------------------------------------------------------------#

Author/Artist: SugarComa
Title: Crazy
Transcribed by: Chris Birkitt (BirKy)
Email: spiky_ninjaboy@hotmail.com

Cool cover! My first tab...i think it is pretty much correct but email me with any comments/corrections!

(\) Slide Down
(/) Slide Up
(x) Palm Mute


Intro. w\ Distortion
------------------------------------------------------------------------------
------------------------------------------------------------------------------
------------------------------------------------------------------------------
-8-8--33-44-------------------------------------------------------------------
-1010-55-66--x1---------------------------------------------------------------
-1010-55-66-------------------------------------------------------------------
                                                        

Intro Cont. 
------------------------------------------------------------------------------
------------------------------------------------------------------------------
------------------------------------------------------------------------------
-8-8-\33/4444\333/8-8-8-8-8---------------------------------------------------
-1010\55/6666\555/1010101010--x2----------------------------------------------
-1010\55/6666\555/1010101010--------------------------------------------------
                                                   

Verse. Palm Muted
------------------------------------------------------------------------------
------------------------------------------------------------------------------
------------------------------------------------------------------------------
-8-8-\33/4444\333/8-8-8-8-8---------------------------------------------------
-1010\55/6666\555/1010101010--x4----------------------------------------------
-1010\55/6666\555/1010101010--------------------------------------------------
                                                          
[ Tab from: http://www.guitartabs.cc/tabs/s/sugarcoma/crazy_tab.html ]
Interlude. w\ Distortion and Palm Muting (x)
------------------------------------------------------------------------------
------------------------------------------------------------------------------
------------------------------------------------------------------------------
-1xx1xx11-3xx3xx33-4xx4xx44-3xx3xx33------------------------------------------
-3xx3xx33-5xx5xx55-6xx6xx66-5xx5xx55--x1--------------------------------------
-3xx3xx33-5xx5xx55-6xx6xx66-5xx5xx55------------------------------------------
 

Chorus. w\ Distortion
------------------------------------------------------------------------------
------------------------------------------------------------------------------
-1010\55/6666\555/1010101010--------------------------------------------------
-xxxx\xx/xxxx\xxx/xxxxxxxxxx--x2----------------------------------------------
-1212\77/8888\777/1212121212--------------------------------------------------
------------------------------------------------------------------------------
 
                                                      
Chorus Cont.
------------------------------------------------------------------------------
------------------------------------------------------------------------------
-1010\55/6666/8-8-8-\55555---1010\55/6666\555/1010101010----------------------
-xxxx\xx/xxxx/xxxxxx\xxxxx---xxxx\xx/xxxx\xxx/xxxxxxxxxx--x1------------------
-1212\77/8888/101010\77777---1212\77/8888\777/1212121212----------------------
------------------------------------------------------------------------------
                                                  
Solo. w\ Phase Effect
------------------------------------------------------------------------------
------------------------------------------------------------------------------
------------------------------------------------------------------------------
--13-10--10-12-13-12-10-8----13-10-13-10-10-9-10-12-10--------13-10--10-12----
--------------------------10--------------------------------------------------
------------------------------------------------------------------------------
                                                    

Solo Cont.
------------------------------------------------------------------------------
------------------------------------------------------------------------------
------------------------------------------------------------------------------
-13-12-10-13--13-10-13-10-10-9-10-12-10---------------------------------------
------------------------------------------------------------------------------
------------------------------------------------------------------------------



Song Order!

Intro
Verse
Interlude
Chorus
Verse
Interlude
Chorus
Solo
Interlude
Chorus    (x2 to finish the song)


Hope ya enjoy using it! _\m/                                                                

Comments