Sugarcoma - Crazy Chords & Tabs

 

Crazy Chords & Tabs

Sugarcoma Chords & Tabs

Version: 1 Type: Bass Tab 0 ratings
1 star 2 stars 3 stars 4 stars 5 stars
comments

Crazy Bass Tab

this is my first try so sory ifi get it wrong


G-------------------------------------------------------
D-------------------------------------------------------
A---33--------------------------------------------------
E------33-44--------------------------------------------

[ Tab from: http://www.guitartabs.cc/tabs/s/sugarcoma/crazy_btab.html ]
G-------------------------------------------------------
D-------------------------------------------------------
A-----33--------------3-333-----------------------------
E---------33-4444-333-----------------------------------

this is the oly part of the song i know but it is the main part listen t te song
to get the beats right. enjoy
Comments