Sugarbush - Fire Side Chords & Tabs

 

Fire Side Chords & Tabs

Sugarbush Chords & Tabs

Version: 2 Type: Bass Tab 0 ratings
1 star 2 stars 3 stars 4 stars 5 stars
comments

Fire Side Bass Tab

Verse
G:-------7-5-3-7p5-----||-------7-5-3-7-5---------|
D:---7-5-----------7p5-||---7-5-----------7-5-3---|
A:-5-------------------||-5---------------------5-|
E:---------------------||-------------------------|

CHorus
G:---------------------||---7---7---7---7---5-7-5-3-7p5-----|
D:-5-7-5-3---5-7-5-3---||-----------------5-------------7p5-|
A:---------3---------5-||-5---5---5---5---------------------|
E:---------------------||-----------------------------------|
[ Tab from: http://www.guitartabs.cc/tabs/s/sugarbush/fire_side_btab_ver_2.html ]
Bridge
G:---7---5---8---7---5h7-|---8---7---8---7---5h7-|
D:-----------------------|-----------------------|
A:-5---5---5---5---5-----|-5---5---5---5---5-----|
E:-----------------------|-----------------------|

This is a kickass band, here are the lyrics


The fires burning I'm sitting there
staring at the flames red glare
Bong burning I have no care
smoke clouds fill the air...what to do

So What would you do

I'm dreaming I'm dreaming about you but you're not really there

In the chairs we sit and talk
Suddenly go for a fire walk
smoke clouds causing me great pain
Jerry is the cocaine train...if not who

SO what would you do

I'm dreaming I'm Dreaming about you but you're not really there
Comments