Sugar Ray - Under The Sun Chords & Tabs

 

Under The Sun Chords & Tabs

Sugar Ray Chords & Tabs

Version: 4 Type: Tab 0 ratings
1 star 2 stars 3 stars 4 stars 5 stars
comments

Under The Sun Tab

E|--------------------------------------------------------------------|
B|--------------------------------------------------------------------|
G|--------------------------------------------------------------------|
D|--4/6--4--3--4---------------2/3--2/3--1------4/6--4--3--4----------|
A|----------------1------1--4---------------------------------1-------|
E|--------------------------------------------------------------------|

<----------------------------------------------|
<----------------------------------------------|
<-------------1--------------------------------|
<--------2/3-----2/3--1------4/6--4--3--4------|
<--1--4-------------------------------------1--|
<----------------------------------------------|
[ Tab from: http://www.guitartabs.cc/tabs/s/sugar_ray/under_the_sun_tab_ver_4.html ]
Comments