Sugar Ray - The Greatest Chords & Tabs

 

The Greatest Chords & Tabs

Sugar Ray Chords & Tabs

Version: 1 Type: Bass Tab 0 ratings
1 star 2 stars 3 stars 4 stars 5 stars
comments

The Greatest Bass Tab

   
                     "The Greatest" (Bass Tab)
                     By:Sugar Ray
                     Written By:Sugar Ray, B.Bouldin
                     From the "Lemonade and Brownies" LP
                     Transcribed by:Damian
                     E-Mail:lunchbox_of_daisy@hotmail.com

                     Standard Tuning: (E,A,D,G)

                     Main Riff:(Intro,Verses,Chorus,and Under Guitar
                     Solo)

                     G:-------------------------------------------
                     D:----------------3-4------------------------
                     A:-------5----3-4-----4-3--------------------
                     E:-3--1---------------------3----------------

                     Fill-Ins:(Occurs before a verse starts up)
[ Tab from: http://www.guitartabs.cc/tabs/s/sugar_ray/the_greatest_btab.html ]
                     G:-------------------------------------------
                     D:-------------------------------------------
                     A:-------------------------------------------
                     E:-1-/-/-/-/-/-/-/-/-/-10--------------------

                     Short Interlude:(Happens at 2:36)

                     G:-------------------------------------------
                     D:-------------------------------------------
                     A:-------------------------------------------
                     E:-1--3--------1--3--------1--3--------1--3--

                     Very Last Two Notes:

                     G:-------------------------------------------
                     D:-------------------------------------------
                     A:-------------------------------------------
                     E:-3--1--------------------------------------
Comments