Sugar Ray - Someday Chords & Tabs

 

Someday Chords & Tabs

Sugar Ray Chords & Tabs

Version: 1 Type: Chords 0 ratings
1 star 2 stars 3 stars 4 stars 5 stars
comments

Someday Chords

          BTAB: SOMEDAY
          GROUP: SUGAR RAY
          AUTHOR: BAZ

          **TAKEN FROM BAZ BASS TAB ARCHIVE - ( HTTP://baz.homepad.COM )**

          Played on upright want to notes email me and i will tell ya make it boomy
          lots of bottom no treble or edge!
[ Tab from: http://www.guitartabs.cc/tabs/s/sugar_ray/someday_crd.html ]
             riff 1
          G|---------------------|
          D|----------2~-4~-2~---|
          A|-2~-4~-2~------------|
          E|---------------------|


             riff 2
          G|---------------------|
          D|----------2-4*4*-2---|
          A|-2-4*4*-2------------|
          E|---------------------|
Comments