Sugar Ray - Rpm Chords & Tabs

 

Rpm Chords & Tabs

Sugar Ray Chords & Tabs

Version: 2 Type: Bass Tab 0 ratings
1 star 2 stars 3 stars 4 stars 5 stars
comments

Rpm Bass Tab

Sugar Ray - RPM           



Tune down Low to High:  Db Ab Db Gb

Intro:
============12x===========         ========4x==========
------------------------------------------------------------
------------------------------------------------------------
------------------------------------------------------------
--0--0------x--x--x--0---0---------0--0----0--0--0----0-----


Verse
You will recover...

------------------------------------------------------------
------------------------------------------------------------
------------------------------------------------------------
---0--0---0--0----0--0----0--0----0--0---0--0---0--0---0--0-

=======4x=========
--------------------
--------------------
--------------------
--0--0----0--0---0--


Pre-Chorus
=========3x=============
------------------------------------------------------------
------------------------------------------------------------
------------------------------------------------------------
--5b(6)--rb5--3--5--5--3-------5b(6)--rb5--3---0------------


Chorus
I will...

------------------------------------------------------------
------------------------------------------------------------
------------------------------------------------------------
-0--0--0--1---2--2--3---0--0--0--1---2--2--3---0--0--0--1---


------------------------------------------------------------
------------------------------------------------------------
------------------------------------------------------------
-2--2--3---0--0--1---2---3----------------------------------

Verse
Pre-Chorus
Chorus

[ Tab from: http://www.guitartabs.cc/tabs/s/sugar_ray/rpm_btab_ver_2.html ]
Interlude
==============7x=====================
------------------------------------------------------------
------------------------------------------------------------
------------------------------------------------------------
----0--0--0--0------x---1---2---3---x---------0--0----------




------------------------------------------------------------
------------------------------------------------------------
------------------------------------------------------------
-----0--0--0--1---2--2--3---0--0--1---2--2--3----0--0--0--1-


--------------------------
--------------------------
--------------------------
--0--0--0--1--1--2--2--3--

===7x===
------------------------------------------------------------
------------------------------------------------------------
------------------------------------------------------------
---0---0------------0--0-----x--x--x--13\-------------------

============8x==========
---------------------------
---------------------------
---------------------------
--0--0--0--1----2--2---3---

Outro chorus
==========7x==========
------------------------------------------------------------
------------------------------------------------------------
------------------------------------------------------------
-0--0--0--1----2--2--3---------0--0--0--1----2--2--3--------



h=hammeron                         t=tap w/right hand
p=pulloff                          tr=trill
/\=slide                           ps=pick scrape
*=artificial harmonic              b=bend(to note)
+=natural harmonic

Metal Edge (619)423-4970 15,000+ guitar/bass/drum tablature
4 Gigs of MP3s.  Game Emulators, Hacking, BBS Programs More!
No slow connects/downloads no broken links, no channel takeovers, 
no ratios and no bullshit.  13Gigs, Fast Pentium 128megs of RAM
custom ansis, It's the BEST in San Diego.  This post has been posted
anonymously do not reply it will not get through to the author.
Call Metal Edge with questions/comments.


Comments