Sugar Ray - Ours Chords & Tabs

 

Ours Chords & Tabs

Sugar Ray Chords & Tabs

Version: 8 Type: Tab 0 ratings
1 star 2 stars 3 stars 4 stars 5 stars
comments

Ours Tab

   
This is the best tab of the song that you can find on internet
        check it out.......


INTRO

E---------------------------------------0-0-0------------------|
B-------------------------3-------------4-4-4-----------2------|
G--------4----------------4-------------5-5-5-----------3------|
D--------5------------4------4-----------------------3------3--|   2x
A-----5-----5------2----------------3-------------1------------|
E--3-----------------------------------------------------------|


CHORUS
[ Tab from: http://www.guitartabs.cc/tabs/s/sugar_ray/ours_tab_ver_8.html ]
   G               Bm               B#m           F

E--3---------------2----------------3-------------1------------|
B--3---------------3----------------4-------------1------------|
G--4---------------4----------------5-------------2------------|
D--5---------------4----------------5-------------3------------|   4x
A--5---------------2----------------3-------------3------------|
E--3---------------2----------------3-------------1------------|


Repeat the intro during each verse....

The rythm is very simple, just listen to the song to get it...


                          Have Fun
Comments