Sugar Ray - Glory Chords & Tabs

 

Glory Chords & Tabs

Sugar Ray Chords & Tabs

Version: 1 Type: Tab 0 ratings
1 star 2 stars 3 stars 4 stars 5 stars
comments

Glory Tab

          Song: Glory
          By: Sugar Ray
          Album: 14:59
          Tabbed By: Sarah S. (BusfaceIM@aol.com)
          Date: 10-5-99

          This is a VERY easy song to play.  Listen to the song, and it will be
          a breeze.  It sounds better with Distortion... but it sounds ok without.

          Drop D tuning.


          Intro (also Riff #1)
          e]------------------------------------------------
          B]------------------------------------------------
          G]------------------------------------------------
          D]---3--5--1-1--3--5--1-1--3--5--1-1--3--4*(7x)---
          A]---3--5--1-1--3--5--1-1--3--5--1-1--3--4*-------
          D]---3--5--1-1--3--5--1-1--3--5--1-1--3--4*-------

          Verse:
          e]-----------------------------------------
          B]-----------------------------------------
          G]-----------------------------------------
          D]-------3-------5-------3-------------5---
          A]-----3-------5-------3------3------5-----
          D]---3-------5-------3----------3--5-------

[ Tab from: http://www.guitartabs.cc/tabs/s/sugar_ray/glory_tab.html ]
          Riff #2: "...please tell me lie after lie..."
          e]-----------------
          B]-----------------
          G]-----------------
          D]--------5--------
          A]-------------5---
          D]---3s5----3------


          Chorus: "...Now I know their gonna change my glory..."
          e]-----------------------------------------------
          B]-----------------------------------------------
          G]-----------------------------------------------
          D]---3-3-8-9-8-6-3-3-8-9-8-6-3-5-1-1-3--4*(6x)---
          A]---3-3-8-9-8-6-3-3-8-9-8-6-3-5-1-1-3--4*-------
          D]---3-3-8-9-8-6-3-3-8-9-8-6-3-5-1-1-3--4*-------


          Riff #3:
          e]---------------------------------------------
          B]---------------------------------------------
          G]---------------------------------------------
          D]---9--8-   (Play   -9--8---x-x-x-x-x-x-x-x---
          A]---9--8-   Riff 1  -9--8---x-x-x-x-x-x-x-x---
          D]---9--8-   here.)  -9--8---x-x-x-x-x-x-x-x---


          Format:
          Intro (Riff 1)--0:07
          Verse --0:27
          Riff 2 --0:40
          Chorus --0:50
          Verse --1:07
          Riff 2 --1:20
          Chorus --1:30
          Riff 3 --1:43
          Chorus (while solo is playing) --1:56
          Verse --2:16
          Riff 2 --2:29
          Chorus --2:43
          Riff 3 --2:56
          Chorus --3:07
Comments