Sugar Ray - Fly Chords & Tabs

 

Fly Chords & Tabs

Sugar Ray Chords & Tabs

Version: 2 Type: Bass Tab 0 ratings
1 star 2 stars 3 stars 4 stars 5 stars
comments

Fly Bass Tab

Transcribed by Dan Hickey (hickey.55@osu.edu)


Song:  Fly
Artist:  Sugar Ray
Album:  Floored


s = slide
b(1/4) = bend 1/4


Tune down 1/2 step


Intro & Verses
--------------------------
-----------4--(4)b(1/4)---
0--0--4s5-----------------
--------------------------


Chorus
-----------
-----------
0--0--5----
-----------
then back to 
--------------------------
-----------4------4-------
0--0--4s5-----------------
--------------------------

Coda
---------------------------------------------
---------------------------------------------
7--7-------7----5--5----0--0--5----0--0--5---
--------7------------------------------------

This is the end of the 2nd Cota
-------------------------------
-------------------------------
0--0--0----------0--5----5-----
---------2s3--3----------------

[ Tab from: http://www.guitartabs.cc/tabs/s/sugar_ray/fly_btab_ver_2.html ]
Interlude
---------------------------------------------------------------------
---------------------------------------------------------------------
0-0-0-0-0-0-0----4----0-0-0-0-0-0-0----3----0-0-0-0-0-0-0----4-------
---------------------------------------------------------------------

-------------------
---------------(5)-
0-0-0-0-0-0-0---3--
-------------------


Outro
---------------------------
---------------------------
0--0--0-------5----5----5--
---------2s3---------------

---------------------------------------------------------------------
-------------------------------------------7-------------------------
12\------12--12\-----0--0--12\-----7----7-----7----------------------
-------------------------------------------------5-------------------

-------------------------
-------------------7-----
------------7----7---7---
5---5------------------5-

That's pretty much it, most of the song repeats those same riffs, 
just listen to the song to see where it repeats.

Questions, comments, corrections?  
email to HICKEY.55@OSU.EDU
Comments