Sugar Ray - Falls Apart Chords & Tabs

 

Falls Apart Chords & Tabs

Sugar Ray Chords & Tabs

Version: 1 Type: Bass Tab 0 ratings
1 star 2 stars 3 stars 4 stars 5 stars
comments

Falls Apart Bass Tab

   
Author/Artist: Sugar Ray
Title: Falls Apart
Transcribed by: Alaina Iwancio
Email: alaina_iwancio@yahoo.com

Intro:
G-------------------------------------------------------------------|
D-----------------------------------2-2-2-2-2-2-2-2-----------------|
A-------------------0-0-0-0-0-0-0-0-----------------4-4-4-4-2-2-2-2-|
E-0-0-0-0-0-0-0-0-0-------------------------------------------------|

Verses:
G-------------------------------------------------------------
D-2-2-2-2-2-2-2---------------2-2-2-2-2-2-2-------------------
A---------------0-0-0-0-0-0-0---------------4-4-4-4-2-2-2-2-2-
E-------------------------------------------------------------

G---------------------------------------------------------------
D---------------------------------------------------------------
A-4-4-4-4-2-2-2-2-4-4-4-4-4-4-4-4-2-2-2-2-2-2-2-2-4-4-4-4-4-4-4-
E---------------------------------------------------------------

G-----------------------------------------------------|
D-----------------------------------------------------|
A-----------------0-0-0-0-0-0-0-0-0-4-4-4-4-4-2-2-2-2-|
E-0-0-0-0-0-0-0-0-------------------------------------|
[ Tab from: http://www.guitartabs.cc/tabs/s/sugar_ray/falls_apart_btab.html ]
Chorus:
G-------------------------------------------------------------------------------
D-------------------------------------------------------------------------------
A-----------------0-0-0-0-0-0-0-0---------------4-4-4-4-2-2-2-2-4-4-4-4-2-2-2-2-
E-0-0-0-0-0-0-0-0-----------------0-0-0-0-0-0-0---------------------------------

Bridge:
G-----------------------------------2\---------------------2\-----4\-
D--------------------------------------------------------------------
A-------------------0-0-0-0-0-0-0-0--------------------0-0----0-0----
E-4-4-4-4-4-4-4-4-4--------------------4-4-4-4-4-4-4-4---------------

G---------------------------2\--------------------------------------
D---------4-4-6-4-4-------------------------------------------------
A-------------------6-4-0-0----0-0-0-0-0-----------0-0-0-0-0-0-2-2\-
E-4-4-4-4--------------------------------4-4-4-4-4------------------

G-------------------------------------------------------------------|
D---------------------------------2-2-2-2-2-2-2-2-------------------|
A-----------------0-0-0-0-0-0-0-0-----------------4-4-4-4-2-2-2-2-0-|
E-0-0-0-0-0-0-0-0---------------------------------------------------|

Outro:
G-------------------------------------------------------------------------
D-------------------------------------2-2-2-2-2-2-2-2-4-6-----------------
A-------------------0-0-0-0-0-0-0-2-4---------------------4-4-4-4-2-2-2-2-
E-0-0-0-0-0-0-0-2-4-------------------------------------------------------

G-------------------|
D-------------------|
A-4-4-4-4-2-2-------|
E-------------4-2-0-|

Comments