Sugar Ray - Answer The Phone Chords & Tabs

 

Answer The Phone Chords & Tabs

Sugar Ray Chords & Tabs

Version: 3 Type: Tab 0 ratings
1 star 2 stars 3 stars 4 stars 5 stars
comments

Answer The Phone Tab

   
#----------------------------------PLEASE NOTE---------------------------------#
#This file is the author's own work and represents their interpretation of the #
#song. You may only use this file for private study, scholarship, or research. #
#------------------------------------------------------------------------------#

Artist: Sugar Ray
Song: "Answer the Phone" 
Album: ?
Transcribed by: CASEY HOLLYFIELD(kcsk8ter@hotmail.com)  &  CASEY HILL  
   


(FIRST TAB FOR THIS SONG)

THIS TOOK A LONG TIME SO PLEASE E-MAIL ME IF YOU FIND A MISTAKE




   *********************INTRO***************


      Ab                        Eb            (LEAD)          
e|----------------------------------------------------------------------
B|----------------------------------------------------------------------
G|-----------8---------8-----------------8----------8-------------------
D|--------6-----6---6-----6-----------6-----6----6-----6----------------
A|-------------------------------6--------------------------------------
E|----4-----------------------------------------------------------------
      ^  let ring         ^  let ring



      F     Db
e|----------------------------------------------------------------------
B|----------------------------------------------------------------------
G|-----------8---------8------------------8---------8-------------------
D|--------6-----6---6-----6------------6-----6---6-----6----------------
A|----8--------------------------4--------------------------------------
E-----------------------------------------------------------------------
      ^ let ring                 ^  let ring



     Ab        Eb        F        Db(LEAD)
e|----------------------------------------------------------------------
B|----------------------------------------------------------------------
G|-------------8---------10---------------------------------------------    X2
D|----6--------8-x16-----10-x16-----------------------------------------
A|----6-x16----6---------8--------6-4-3---------6-4-3---------6-4-3-----
E|----4---------------------------------4-4-4----------4-4-4------------





     Ab        Eb        F         Db(RYTHEM)
e|-----------------------------------------------------------------------
B|-----------------------------------------------------------------------
G|-------------8---------10--------6-------------------------------------
D|----6--------8-x16-----10-x16----6-X16---------------------------------   X2
A|----6-x16----6---------8---------4-------------------------------------
E|----4------------------------------------------------------------------




**************VERSE 1*****************
LEAD PLAYS SOME HARMONIC NOTES THE FIRST HALF
Start playing this half way through the verse at about  0:47


     Ab        Eb        F         Db(BOTH)
e|-----------------------------------------------------------------------
B|-----------------------------------------------------------------------
G|-------------8---------10--------6-------------------------------------
D|----6--------8-x16-----10-x16----6-X16---------------------------------
A|----6-x16----6---------8---------4-------------------------------------
E|----4------------------------------------------------------------------
  P.M.^^^^^^^^^^^^^^^^^^^^^^^^^^^^^^^^^^^^^^^^^^^^^^^^^^^^^^^




*****************CHORUS**********************


     Ab        Eb        F         Db(LEAD)
e|------------------------------------------------------------------------
B|------------------------------------------------------------------------
G|-------------8---------10-----------------------------------------------
D|----6--------8-X16-----10-X16-------------------------------------------    X2
A|----6-X16----6---------8--------------6-4-3---------6-4-3---------6-4-3-
E|----4----------------------------------------4-4-4-4-------4-4-4-4------



     Ab        Eb        F         Db(RYTHEM)
e|------------------------------------------------------------------------
B|------------------------------------------------------------------------
G|-------------8--------------------6-------------------------------------
D|----6--------8-x16-----3----------6-X16---------------------------------   X2
A|----6-x16----6---------3--X16-----4-------------------------------------
E|----4------------------1------------------------------------------------



**************VERSE 2*****************
LEAD PLAYS SOME HARMONIC NOTES THE FIRST HALF
Start playing this half way through the verse at about  1:41


     Ab        Eb        F         Db(BOTH)
e|-----------------------------------------------------------------------
B|-----------------------------------------------------------------------
G|-------------8---------10--------6-------------------------------------
D|----6--------8-x16-----10-x16----6-X16---------------------------------
A|----6-x16----6---------8---------4-------------------------------------
E|----4------------------------------------------------------------------
  P.M.^^^^^^^^^^^^^^^^^^^^^^^^^^^^^^^^^^^^^^^^^^^^^^^^^^^^^^^


*****************CHORUS**********************
[ Tab from: http://www.guitartabs.cc/tabs/s/sugar_ray/answer_the_phone_tab_ver_3.html ]
    Ab        Eb        F         Db(LEAD)
e|------------------------------------------------------------------------
B|------------------------------------------------------------------------
G|-------------8---------10-----------------------------------------------
D|----6--------8-X16-----10-X16-------------------------------------------    X2
A|----6-X16----6---------8--------6-4-3---------6-4-3---------6-4-3------
E|----4---------------------------------4-4-4-4-------4-4-4-4-------------



     Ab        Eb        F         Db(RYTHEM)
e|-------------------------------------------------------------------------
B|-------------------------------------------------------------------------
G|-------------8--------------------6--------------------------------------
D|----6--------8-x16-----3----------6-X16----------------------------------   X2
A|----6-x16----6---------3--X16-----4--------------------------------------
E|----4------------------1-------------------------------------------------



********************BRIDGE*******************

              (LEAD)          
e|------------------------------------------------------------------------
B|------------------------------------------------------------------------
G|-----------8---------8------------------8-----------8-------------------
D|---------6---6-----6---6--------------6---6-------6---6-----------------
A|----4---------------------------6---------------------------------------
E|------------------------------------------------------------------------
      ^  let ring          ^  let ring



      F     Db
e|------------------------------------------------------------------------
B|------------------------------------------------------------------------
G|----------8---------8----------------8---------8------------------------
D|--------6---6-----6---6------------6---6-----6---6----------------------  X3 w/bass 
A|----8--------------------------9----------------------------------------
E-------------------------------------------------------------------------
      ^ let ring                 ^  let ring




      Ab                        Eb            (LEAD)          
e|------------------------------------------------------------------------
B|------------------------------------------------------------------------
G|-----------8-------8-----------------8--------8-------------------------
D|---------6---6---6---6-------------6---6----6---6-----------------------
A|-------------------------------6----------------------------------------
E|----4-------------------------------------------------------------------
      ^  let ring         ^  let ring



      F     Db
e|------------------------------------------------------------------------
B|------------------------------------------------------------------------
G|----------8--------8-----------------8--------8-------------------------
D|--------6---6----6---6-------------6---6----6---6-----------------------
A|----8--------------------------4----------------------------------------    X1
E-------------------------------------------------------------------------   
      ^ let ring                 ^  let ring



PICK SCRAPE THEN:

     Ab        Eb        F         Db(BOTH)
e|-------------------------------------------------------------------------
B|-------------------------------------------------------------------------
G|-------------8-------------------6---------------------------------------
D|----6--------8-x16-----3---------6-X16-----------------------------------  X2
A|----6-x16----6---------3-X16-----4---------------------------------------
E|----4------------------1-------------------------------------------------



*****************CHORUS**********************

    Ab        Eb        F         Db(LEAD)
e|-------------------------------------------------------------------------
B|-------------------------------------------------------------------------
G|-------------8---------10------------------------------------------------
D|----6--------8-X16-----10-X16---3-----------3---------------3------------   X2
A|----6-X16----6---------8----------4-3---------3-4-3-----------4-3--------
E|----4---------------------------------4-4-4-4-------4-4-4-4--------------



     Ab        Eb        F         Db(RYTHEM)
e|-------------------------------------------------------------------------
B|-------------------------------------------------------------------------
G|-------------8--------------------6--------------------------------------
D|----6--------8-x16-----3----------6-X16----------------------------------   X2
A|----6-x16----6---------3--X16-----4--------------------------------------
E|----4------------------1-------------------------------------------------



************************OUTRO******************

     Ab        Eb        F         Db(RYTHEM)
e|-------------------------------------------------------------------------
B|-------------------------------------------------------------------------
G|-------------8---------10--------6---------------------------------------
D|----6--------8-x16-----10-x16----6-X16-----------------------------------
A|----6-x16----6---------8---------4---------------------------------------
E|----4--------------------------------------------------------------------


     Ab        Eb        F         Db(LEAD)
e|-------------------------------------------------------------------------
B|-------------------------------------------------------------------------
G|-------------8---------10------------------------------------------------
D|----6--------8-x16-----10-x16--3-------------3-------------3-------------
A|----6-x16----6---------8---------4-3-----------4-3-----------4-3---------
E|----4--------------------------------4-4-4-4-------4-4-4-4-------6-4-----


TAB By:  
CASEY HOLLYFIELD  &  CASEY HILL
Comments