Sugar Ray - Answer The Phone Chords & Tabs

 

Answer The Phone Chords & Tabs

Sugar Ray Chords & Tabs

Version: 2 Type: Tab 0 ratings
1 star 2 stars 3 stars 4 stars 5 stars
comments

Answer The Phone Tab

Artist: Sugar Ray
Title: Answer the phone
Tabbed by: Casey Hill

THIS IS AN AWSOME SONG TO PLAY
Standard tuning
Chords. Aflat Eflat F Dflat

Intro:
e|---------------------------------------------------------------------------------
B|--------------------------------------------------------------------------------
G|--------4------4----------4-------4------------4------4-----------4----4-----
D|------6---6--6---6------6---6--6----6--------6---6--6---6-------6---6----6-
A|---------------------6---------------------8-----------------4-----------------
E|---4----------------------------------------------------------------------------
[ Tab from: http://www.guitartabs.cc/tabs/s/sugar_ray/answer_the_phone_tab_ver_2.html ]
Verse
e|--------------------------------------------------------------------------------
B|-------------------------------------------------------------------------------
G|--------------  8-------10-------6--------------------------------------------
D|------6--------8-------10-------6--------------------------------------------
A|------6--------6-------8--------4---------------------------------------------
E|------4------------------------------------------------------------------------


Chorus
e|--------------------------------------------------------------------------------
B|--------------------------------------------------------------------------------
G|--------------  8-------10-----------------------------------------------------
D|------6--------8-------10-----------------------------------------------------
A|------6--------6-------8---------6---4---3------6--4--3---------------------
E|------4---------------------------------------6------------4------------------
Comments