Sugar Ray - Aim For Me Chords & Tabs

 

Aim For Me Chords & Tabs

Sugar Ray Chords & Tabs

Version: 1 Type: Bass Tab 0 ratings
1 star 2 stars 3 stars 4 stars 5 stars
comments

Aim For Me Bass Tab

This is my first tab so go easy on me.
Regular tuning.
The bass doesn't come in for a few seconds.
Intro
G:---------------------------------------------------------------------------
D:---------------------------------------------------------------------------
A:00---00---00---00----------------------------------------------------------
E:---0----0----0----0--------------------------------------------------------

Verse
G:---------------------------------------------------------------------------
D:---------------------------------------------------------------------------
A:--0---0---2---0---0---2----------------------------------------------------
E:0---0---0---0---0---0------------------------------------------------------

Chorus
G:---------------------------------------------------------------------------
D:---------------------------------------------------------------------------
A:00-------44---------00-------44--------------------------------------------
E:---22-00----22-44-0----22-00----22-44-0------------------------------------

Intro
G:---------------------------------------------------------------------------
D:---------------------------------------------------------------------------
A:00---00---00---00----------------------------------------------------------
E:---0----0----0----0--------------------------------------------------------

Verse
G:---------------------------------------------------------------------------
D:---------------------------------------------------------------------------
A:--0---0---2---0---0---2----------------------------------------------------
E:0---0---0---0---0---0------------------------------------------------------
[ Tab from: http://www.guitartabs.cc/tabs/s/sugar_ray/aim_for_me_btab.html ]
Chorus
G:---------------------------------------------------------------------------
D:---------------------------------------------------------------------------
A:00-------44---------00-------44--------------------------------------------
E:---22-00----22-44-0----22-00----22-44-0------------------------------------

Intro
G:---------------------------------------------------------------------------
D:---------------------------------------------------------------------------
A:00---00---00---00----------------------------------------------------------
E:---0----0----0----0--------------------------------------------------------

Instrumental Listen for the chages in notes.
G:---------------------------------------------------------------------------
D:---------------------------------------------------------------------------
A:------0000-----------2222-------2222--------2-0-----2-0-----2-0-----2-0----
E:0-2-4------000000000------00000------000000-----000-----000-----000-----000

Chorus
G:---------------------------------------------------------------------------
D:---------------------------------------------------------------------------
A:00-------44---------00-------44--------------------------------------------
E:---22-00----22-44-0----22-00----22-44-0------------------------------------

Intro
G:---------------------------------------------------------------------------
D:---------------------------------------------------------------------------
A:00---00---00---00----------------------------------------------------------
E:---0----0----0----0--------------------------------------------------------
You don'tplay at the end.
If you have any corrections or comments, please email me with them at Bigedboy2007@aol.com
Comments