Sugar - System Of A Down Chords & Tabs

 

System Of A Down Chords & Tabs

Sugar Chords & Tabs

Version: 1 Type: Tab 0 ratings
1 star 2 stars 3 stars 4 stars 5 stars
comments

System Of A Down Tab

Sugar        System Of A Down


Tabbed using www.GuitarAndBass.co.uk Transcription Tools v1.12
--------------------------------------------------------------
                                7x                   
D#||----------------------------||------------------|
A#||----------------------------||------------------|
F#||*--------------------------*||------------------|
C#||*--0--6--5--4--0--6--5--4--*||------------------|
G#||---0--6--5--4--0--6--5--4---||------------------|
C#||---0--6--5--4--0--6--5--4---||------------------|


                                                                     
------------------||--------12----------12--|--11-------------------|
------------------||---9--------------------|--------12--------9----|
------------------||*-----------------------|-----------------------|
------------------||*-----------------------|-----------------------|
------------------||------------------------|-----------------------|
------------------||------------------------|-----------------------|

[ Tab from: http://www.guitartabs.cc/tabs/s/sugar/system_of_a_down_tab.html ]
                                          2x
--9/---0------------|--9/---0-------------||
--------------------|---------------------||
--------------------|--------------------*||
--------------------|--------------------*||
--------------------|---------------------||
--------------------|---------------------||


                                                                 
--------12--12--12--12--12--12--|--11--11-----------------------|
--9--9--------------------------|----------12--12--12--12--9----|
--------------------------------|-------------------------------|
--------------------------------|-------------------------------|
--------------------------------|-------------------------------|
--------------------------------|-------------------------------|


                                              
--9---------9---------|--9---------9---------|
-------9---------9----|-------9---------9----|
----------------------|----------------------|
----------------------|----------------------|
----------------------|----------------------|
----------------------|----------------------|


                             7x                      
|----------------------------||------|------|------||
|----------------------------||------|------|------||
|*--------------------------*||------|------|------||
|*--0--6--5--4--0--6--5--4--*||------|------|------||
|---0--6--5--4--0--6--5--4---||------|------|------||
|---0--6--5--4--0--6--5--4---||------|------|------||


Tabbed using www.GuitarAndBass.co.uk Transcription Tools v1.12
--------------------------------------------------------------
Comments