Sufjan Stevens - John Wayne Gacy Jr Chords & Tabs

 

John Wayne Gacy Jr Chords & Tabs

Sufjan Stevens Chords & Tabs

Version: 1 Type: Tab 0 ratings
1 star 2 stars 3 stars 4 stars 5 stars
comments

John Wayne Gacy Jr Tab

   
Sufjan Stevens
John Wayne Gacy, Jr.
Illinois

Chords:

Em 022000
D  xx0232
Bm x24432
G  320033

This isn't perfect, but it's close. I'm hoping someone will improve on it.
[ Tab from: http://www.guitartabs.cc/tabs/s/sufjan_stevens/john_wayne_gacy_jr_tab.html ]
             *
e||------0-------0-----2---2---2---2|-----------------------------------|
B||----0---0---0---0-3---3---3---3--|---3---3---3---3---3---3---3-------|
G||--0-------0--------2---2---2---2-|-4---4---4---4---0---0---0---0-----|
D||-2-2-2-2-2-2-2-2-0---0---0---0---|--4---4---4---4--------------------|
A||---------------------------------|2---2---2---2----------------------|
E||---------------------------------|----------------3-3-3-3-3-3-3-3-2-0|
                  
e|------0-------0-----2---2---2---2|-----------------------------------||
B|----0---0---0---0-3---3---3---3--|-----3-------3---3---3---3---3-----||
G|--0-------0--------2---2---2---2-|---4---4---4---4---0---0---0---0---||
D|-2-2-2-2-2-2-2-2-0---0---0---0---|-4-------4-------------------------||
A|---------------------------------|2-2-2-2-2-2-2-2--------------------||
E|---------------------------------|----------------3-3-3-3-3-3-3-3-2-0||
Comments