Sufjan Stevens - Holland Chords & Tabs

 

Holland Chords & Tabs

Sufjan Stevens Chords & Tabs

Version: 1 Type: Tab

Holland Tab

Sufjan Stevens - Michigan - 07 - Holland
Standard Tuning
Capo on 6
Don't play this incorectly! Fingerpick the whole thing!
Pick together (DON'T STRUM) where "^" indicates.
Questions? Comments? AIM: Thab Tow Inc
Gee, I hope I did it right. Please comment or make a better tab!


Main Music:
e------|------|------|------|-----|-------|---|
B----3-|----3-|----3-|-5----|-0---|-------|---|
G-2----|-0----|-2----|----2-|-2-2-|-2--2--|-0-|
D-2-2--|-2-2--|-2-2--|-2-2--|--2--|-2-2-2-|---|
A------|------|------|------|-----|-------|---|
E------|------|------|------|-----|-------|---|
  ^      ^      ^      ^      ^     ^

Do that twice for the intro, 6 times for the verse.
At the end of the 8th time, do this thing (or something like it):

e------------|
B------------|
G----------2-|
D-2---2-2-2--|
A------------|
E--0---0-0---|

Next, for the Vocalization part:
[ Tab from: http://www.guitartabs.cc/tabs/s/sufjan_stevens/holland_tab.html ]
e------|------|------|------|-----|-------|--------------------|
B----3-|----3-|----3-|-5----|-0---|-------|--------------------|
G-2----|-0----|-2----|----2-|-2-2-|-2--2--|------------0-0-0-0-|
D-2-2--|-2-2--|-2-2--|-2-2--|--2--|-2-2-2-|------------0-0-0-0-| x1
A------|------|------|------|-----|-------|-2--2-2--h5-5-5-5-5-|
E------|------|------|------|-----|-------|-0--0-0h3---3-3-3-3-|
  ^      ^      ^      ^      ^     ^

e------|------|------|------|-----|-------|--------------|
B----3-|----3-|----3-|-5----|-0---|-------|--------------|
G-2----|-0----|-2----|----2-|-2-2-|-2--2--|------0-0-0-0-|
D-2-2--|-2-2--|-2-2--|-2-2--|--2--|-2-2-2-|------2-2-2-2-| x1
A------|------|------|------|-----|-------|-2--2-2-2-2-2-|
E------|------|------|------|-----|-------|-0--0-0-0-0-0-|
  ^      ^      ^      ^      ^     ^

For the 2nd verse, do the "Intro, Verse, and Vocolization" thing 5 times.

For the 2nd vocalization part:

e------|------|------|------|-----|-------|--------------------|
B----3-|----3-|----3-|-5----|-0---|-------|--------------------|
G-2----|-0----|-2----|----2-|-2-2-|-2--2--|------------0-0-0-0-|
D-2-2--|-2-2--|-2-2--|-2-2--|--2--|-2-2-2-|------------0-0-0-0-| x3
A------|------|------|------|-----|-------|-2--2-2--h5-5-5-5-5-|
E------|------|------|------|-----|-------|-0--0-0h3---3-3-3-3-|
  ^      ^      ^      ^      ^     ^

e------|------|------|------|-----|------|
B----3-|----3-|----3-|-5----|-0---|------|
G-2----|-0----|-2----|----2-|-2-2-|-2--2-|
D-2-2--|-2-2--|-2-2--|-2-2--|--2--|-2-2--| x1
A------|------|------|------|-----|------|
E------|------|------|------|-----|------|
  ^      ^      ^      ^      ^     ^