Sufjan Stevens - Dress Looks Nice On You Chords & Tabs

 

Dress Looks Nice On You Chords & Tabs

Sufjan Stevens Chords & Tabs

Version: 1 Type: Tab 0 ratings
1 star 2 stars 3 stars 4 stars 5 stars
comments

Dress Looks Nice On You Tab

   
-------------------------------------------------------------------------------
			     SONG NAME - Band Name
-------------------------------------------------------------------------------
Tabbed by: drewbix
Email:

Tuning: Standard, Capo 8th
Fingerpicked


Main Verse:
e|------------------------------------------------------------------|
B|-----------------------------3------------3--------3--------------|
G|---------0------------0--------0------------0---------0-----------|
D|-----2--------0-0h2------2----------------------------------------|
A|--0------------------------------3------------2-------------------|
E|----------------------------------------------------------3-------|
[ Tab from: http://www.guitartabs.cc/tabs/s/sufjan_stevens/dress_looks_nice_on_you_tab.html ]
When Banjo enters
e|---------------------------0-------0-------0-----------------------|
B|-----------------------------3-------3-------3---------------------|
G|------------0---0-0h2-----------0-------0--------------------------|
D|------0h2----------------------------------------------------------|
A|--0h2----------------------3-------2-------------------------------|
E|-------------------------------------------3-----------------------|

Keyboard enters:

Something like

D then C#

Pretty sad tab, but a start.



| /  slide up
| \  slide down
| h  hammer-on
| p  pull-off
| ~  vibrato
| +  harmonic
| x  Mute note
===============================================================================
Comments