Sufjan Stevens - Chicago Chords & Tabs

 

Chicago Chords & Tabs

Sufjan Stevens Chords & Tabs

Version: 2 Type: Tab 0 ratings
1 star 2 stars 3 stars 4 stars 5 stars
comments

Chicago Tab

   
----------------------------------------------------------------------------
			     Chicago - Sufjan Stevens
----------------------------------------------------------------------------
Tabbed by: Haleth Son of Hama
Email: Halethsonofhama@gmail.com

This is something similar to How Sufjan Played his acoustic version of Chicago
when he Played on KCRW here in LA.

Tuning: Standard
(Capo on 8: played relative to capo)

[ Tab from: http://www.guitartabs.cc/tabs/s/sufjan_stevens/chicago_tab_ver_2.html ]
Main Verse:
  |        D        |      Am        |         C        |         G      |  
e|--------2-------0-----------------0-------------------------------------|
B|----3-------3------------1-----------------1--------0--------0--------0-|
G|------2-------2------2--------2--------0--------0--------0--------0-----|
D|--0-------0------------2--------2--------2--------2--------0--------0---|
A|-------------------0--------0--------3--------3-----------------2-------|
E|-------------------------------------------------------3----------------|

-CHORUS- (played verse right before chorus as well) This is pretty much the
same as the verse onnly a slight variation at the end.

Chorus:
  |        D        |      Am        |         C       |   Em    |   G    | 
e|--------2-------0-----------------0-----------------------------------1--|
B|----3-------3------------1-----------------1--------0--------0-----------|
G|------2-------2------2--------2--------0--------0--------0--------0------|
D|--0-------0------------2--------2--------2--------2--------2--------0----|
A|-------------------0--------0--------3--------3--------2-----------------|
E|----------------------------------------------------------------3--------|

(if you want to see the video of him playing this Email me and i will send you the link)
============================================================================
Comments