Suffocation - Demise Of The Clone Chords & Tabs

 

Demise Of The Clone Chords & Tabs

Suffocation Chords & Tabs

Version: 1 Type: Tab 0 ratings
1 star 2 stars 3 stars 4 stars 5 stars
comments

Demise Of The Clone Tab

   
Band:  (Suffocation)
Album: (Souls to Deny)
Song:  (Demise of the Clone)

Copyright (c)  (Relapse Records) (2004)
Version 1.0 - (09-18-2004)

Transcribed By: (Ghost222)
Email:          (spydrbyte11@yahoo.com)


.  - palm mute           /  - slide up to
\  - slide down to       ~  - vibrato
h  - hammer on           b  - Bend
p  - pull off            Suffixes for bend
t  - tap                 f  - full bend    h - half bend
ph - pinched harmonic    q  - quarter bend t - tap bend
*  - see comment         ^  - Hold bend    r release bend
x  - Stuccatto           ~  - vibrato bend
,  - slight palm mute    () - ghost note, sustained note
"  - tremolo note        <> - Trill

Tunning C F B E G C
gtrs 1+2 
|-------------------------------------------------------------------|
|.-.-.-~------------------------------------------------------------|
|5-5-5-4-------"---"----~---------------------.---.---.--""""""""---|
|7-7-7-6-------7-"-6-"--10--.-.-.-.---.---.---4---5---2--22113322---|
|7-7-7-4---"-----8---7--8---5-5-5-4---2---6---2---3---0-------------|
|5-5-5-6---1----------------7-7-7-6---0---4-------------------------|

|-------------------------------------------------------------------|
|-------------------------------------------------------------------|
|---------------------------------"---"-------------------""""""""""|
|.---.-.-.---.--.-.-.-----"-------7---6---"---"---"---"---6---------|
|7---6-7-6---5--5-6-7-----4---"-----------3---4---6---7-------------|
|5---4-5-4---3--3-4-5---------6-------------------------------------|

|-------------------------------|-----------------------------------|
|-------------------------------|-----------------------------------|
|------------------.---.---"""""|--------------------.--.--""""""---|
|.---.---.-----.---8---9---5----|-..-.--.--.-----.---8--5--6-----.-.|
|4---7---5-----10--6---7--------|-33-4--7--8-----10--6--7--------3-0|
|2---5---7-----8----------------|----2--5--7-----8------------------|
[ Tab from: http://www.guitartabs.cc/tabs/s/suffocation/demise_of_the_clone_tab.html ]
|-------------------------------------------------|-----------------|
|-----------------------------"-"---------"-"-"-"-|-----------------|
|--------------.--.-----"-----6-5-------"-5-6-8-9-|-"""""""""""----.|
|.--.--.----.--8--9-----5---------------6---------|-6--------------.|
|4--7--9----10-6--7---------"------"-"------------|-----------------|
|2--5--7----8---------------3------3-4------------|-----------------|

|--------------------------|----------------------------------------|
|--------------------ph----|----------------------------------------|
|---8-----------10---8-----|-...------------------------------------|
|--------------------------|-666------------...--...----------------|
|6-----6--/--8-------------|------...--...--444--777--...-----------|
|--------------------------|------555--888------------444-----------|

|------------------------------|------------------------------------|
|------------------------------|------------------------------------|
|-...--------------------------|...---------------------------------|
|-555------------...--...------|666------------...--...-------------|
|------...--...--333--666--...-|-----...--...--444--777--...--------|
|------222--333------------444-|-----555--888------------444--------|

|------------------------------|------------------------------------|
|------------------------------|------------------------------------|
|-...--------------------------|------------------------------------|
|-555------------...--...--...-|-.---.-.-.-----.---.-.-.------------|
|------...--...--333--666--444-|-7---6-7-6-----5---5-6-7------------|
|------222--333----------------|-5---4-5-4-----3---3-4-5------------|

|------------------------------------------------|------------------|
|-------------"--"---------------"---"---"---"---|------------------|
|"------------6--5-----------"---5---6---8---9---|bridge coming soon!
|5---------------------------6-------------------|------------------|
|------"-------------"--"------------------------|------------------|
|------3-------------3--4------------------------|------------------|
Comments