Suffer Me - Carry On Chords & Tabs

 

Carry On Chords & Tabs

Suffer Me Chords & Tabs

Version: 1 Type: Bass Tab 0 ratings
1 star 2 stars 3 stars 4 stars 5 stars
comments

Carry On Bass Tab

Song: Carry On
Artist: Suffer Me
Lyrics: Cal Black

Verse Riff:
|--------------------------------------------|
|-------------9---9-12-12-0-12-10-10-9h10p9--|
|--7-7-9-7-10--10----------------------------|
|--------------------------------------------|

[ Tab from: http://www.guitartabs.cc/tabs/s/suffer_me/carry_on_btab.html ]
Chorus Riff:
|----------------------------------|
|----------------------------------|
|----------------5-5-5-5-3-3-3-3---|
|--0-0-0-0-3-3-3-------------------|


Solo Riff:
|-----------------------------------|
|-----------------------------------|
|-----------------------------------|
|--3-3-3-3-3-3-3-3-5-5-5-5-5-5-5-5--|

Thats About it. Listen to the song for timings.
Comments