Suede - The Wild Ones Chords & Tabs

 

The Wild Ones Chords & Tabs

Suede Chords & Tabs

Version: 1 Type: Chords 0 ratings
1 star 2 stars 3 stars 4 stars 5 stars
comments

The Wild Ones Chords

   
#----------------------------------PLEASE NOTE---------------------------------#
#This file is the author's own work and represents their interpretation of the #
#song. You may only use this file for private study, scholarship, or research. #
#------------------------------------------------------------------------------##
From:    "M.CATHERINE ROE (SOCIAL POLICY) PG" 
- --------
This version of the wild ones from dog man star sounds pretty good on an 
acoustic guitar, though it's not the same as what Bernard plays on the album
(or at least what Richard plays live). In the chords below I haven't
attempted to name some of them. Enjoy droogs.

Paul Sheridan   [:+{<

THE WILD ONES - SUEDE
[ Tab from: http://www.guitartabs.cc/tabs/s/suede/the_wild_ones_crd.html ]
VERSE:
The rythym isn't too difficult to pick out.
       E's            A's       F#m's    A's         E's
e--0--0--0--0--0--2--5--4--2----2--4---5--4--2----0--0--0-------------------|
B--0--0--0--0--0--2--2--2--2----2--2---2--2--2----0--0--0-------------------|
G--1--2--1--2--1--2--2--2--2----2--2---2--2--2----1--2--1-------------------|
D--2--2--2--2--2--2--2--2--2----4--4---2--2--2----2--2--2-------------------|
A--2--2--2--2--2--0--0--0--0----4--4---0--0--0----2--2--2-------------------|
E--0--0--0--0--0--x--x--x--x----2--2---x--x--x----0--0--0-------------------|
                                                             
e--0--0--0--0--0--2--5--4--2----2--4---5--4--2----0--0--0--0----------------|
B--0--0--0--0--0--2--2--2--2----2--2---2--2--2----0--0--0--0----------------|
G--1--2--1--2--1--2--2--2--2----2--2---2--2--2----1--2--3--4----------------|
D--2--2--2--2--2--2--2--2--2----4--4---2--2--2----2--2--2--2----------------|
A--2--2--2--2--2--0--0--0--0----4--4---0--0--0----2--2--2--2----------------|
E--0--0--0--0--0--x--x--x--x----2--2---x--x--x----0--0--0--0----------------|


CHORUS:

(A  B  A  B  A  B G#m F#) * 2


=:=:=:=:=:=:=:=:=:=:=:=:=:=:=:=:=:=:=:=:=:=:=:=:=:=:=:=:=:=:=:=:=:=:=:=:=:=:=
David Hisaw, Software Systems Analyst     Internet: hisaw@nevada.edu
UCCSN System Computing Services           BITnet: hisaw@nevada
4505 Maryland Parkway                     Phone: (702)895-4584
Las Vegas, NV 89154                       FAX: (702)895-3791
=:=:=:=:=:=:=:=:=:=:=:=:=:=:=:=:=:=:=:=:=:=:=:=:=:=:=:=:=:=:=:=:=:=:=:=:=:=:=

------- End of Forwarded Message
Comments