Suede - The Beautiful Ones (intro-riff) Chords & Tabs

 

The Beautiful Ones (intro-riff) Chords & Tabs

Suede Chords & Tabs

Version: 1 Type: Chords 0 ratings
1 star 2 stars 3 stars 4 stars 5 stars
comments

The Beautiful Ones (intro-riff) Chords

   
#----------------------------------PLEASE NOTE---------------------------------#
#This file is the author's own work and represents their interpretation of the #
#song. You may only use this file for private study, scholarship, or research. #
#------------------------------------------------------------------------------#

Author : James Gauld - (RobRoy1418@aol.com)
Song   : 'The Beautiful Ones' - (Suede)
Source : 'Coming Up' album

Chord tab:
          C     = 332010     Em = 022000
          D7    = XX0212     F  = 133211
          Fmaj7 = X03210
          E     = 022100
          G     = 320003

Intro riff:

       C                     D7                           Fmaj7
[ Tab from: http://www.guitartabs.cc/tabs/s/suede/the_beautiful_ones_intro_riff_crd.html ]
   E-|-----------------------------2----------------------------0-------|-
   B-|-----------1_3-3^5^3-1-----1---1----------1-3^5^3-1-----1---1-----|-
   G-|-------0-----------------2-------2----0_2-------------2-------2---|-
   D-|---0_2-----------------0-----------0----------------3-----------3-|-
   A-|-3-------3--------------------------------------------------------|-
   E-|------------------------------------------------------------------|-

                  E      G
                  |      |
   E-|------------0-0-0--3-3-3-|-
   B-|-----1-3-1--0-0-0--0-0-0-|-
   G-|-0_2--------1-1-1--0-0-0-|-
   D-|------------2-2-2--0-0-0-|-
   A-|------------2-2-2--2-2-2-|-
   E-|-------------------------|-



-----------------------------------------------------------------------------
Please, send any comments/suggestions you may have to the address above.
-----------------------------------------------------------------------------





 Bookmark this page right now! (Ctrl+D)
 The Internet's largest collection of guitar and bass tablature. Searches over 60,000 files.
 Collection is still updated to include even the newest songs. Fast, easy to use, and every link alwa
Comments