Suckapunch - Penny Fo Yo Thoughts Chords & Tabs

 

Penny Fo Yo Thoughts Chords & Tabs

Suckapunch Chords & Tabs

Version: 1 Type: Bass Tab 0 ratings
1 star 2 stars 3 stars 4 stars 5 stars
comments

Penny Fo Yo Thoughts Bass Tab

SONG: PENNY FO' YO' THOUGHTS
BAND: SUCKAPUNCH
TABBED BY: BEN MEYER benm@oakweb.com



INTRO:

G:-----------------------------------------------------
D:---4-5-7-5-4-----------------------------------------
A:-5---------------4-5-7-5-4----2-3-5-3-2----4-5-7-5-4-
E:---------------5------------3------------5-----------


VERSE:

G:---------------------------------------------------------------------
D:-----4-4-5-5-7-7-----------------------------------------------------
A:-5-5-------------------4-4-5-5-7-7------2-2-3-3-5-5------4-4-5-5-7-7-
E:-------------------5-5-------------3-3---------------5-5-------------


[ Tab from: http://www.guitartabs.cc/tabs/s/suckapunch/penny_fo_yo_thoughts_btab.html ]
CHORUS:

G:-----------------------------------------------
D:-----5-5-5-7-7-7-7-7-7------5-5-5--------------
A:-5-5-------------------5-5---------------------
E:-----------------------------------5-5-5-5-5-5-


THE OH ME SO HORNY THING:

G:---------------------------------------------
D:----------5----------------------5-7-7-7-7-7-
A:-5-5-5-5----------------5-5-5-5--------------
E:--------------5-5-5-5-5----------------------


THAT WIERD FUNKY PART:

G:-------------------------------------------
D:----5-4-------------------5-4--------------
A:-5---------------3-5-7-5-------5-3-----5-3-
E:----------3-5-7--------------------3-5-----
Comments