Suckapunch - Extinguishing Each Other Chords & Tabs

 

Extinguishing Each Other Chords & Tabs

Suckapunch Chords & Tabs

Version: 1 Type: Bass Tab 0 ratings
1 star 2 stars 3 stars 4 stars 5 stars
comments

Extinguishing Each Other Bass Tab

SONG: EXTINGUISHING EACH OTHER
BAND:SUCKAPUNCH
TABBED BY: BEN MEYER benm@oakweb.com




INTRO:

G:---------------------------------------------
D:---------------------------------4-4-4-5-5-7-
A:-----------3-3-3-3-3-5-5-5-5-5---------------
E:-3-3-3-3-3-----------------------------------


SKA VERSE:
[ Tab from: http://www.guitartabs.cc/tabs/s/suckapunch/extinguishing_each_other_btab.html ]
G:-----------------------------------------
D:------------2-3-2------4-5-4-5-7-7-5-5-4-
A:---2-3-2-3----------5--------------------
E:-3---------------------------------------


CHORUS:

G:-------------------------------
D:-------------------------------
A:-----------3-3-3-3-3-5-5-5-5-5-
E:-3-3-3-3-3---------------------


LITTLE FUNKY THING IN THE MIDDLE:

G:-----------------------------------
D:-------------0-2-3-2-------3-4-5-4-
A:---0-2-3-2-3-----------5-----------
E:-3---------------------------------
Comments