Such A Surge - Nie Mehr Lovesongs Chords & Tabs

 

Nie Mehr Lovesongs Chords & Tabs

Such A Surge Chords & Tabs

Version: 2 Type: Bass Tab 0 ratings
1 star 2 stars 3 stars 4 stars 5 stars
comments

Nie Mehr Lovesongs Bass Tab

   
SONG: Nie mehr Lovesongs
ARTIST: Such a SURGE
ALBUM: Was Besonderes
Tabbed by ZackDeLaRocha667@aol.com (MrGentlman@aol.com)



STANDARD TUNING E,A,D,G



Riff 1 (Intro)

G|--------------------------|
D|--------------------------| Repeat ?x
A|--------------------------|
E|-4--4-4--4-4-/1--1-1--1-1/|


Riff 2 (verse)

G|--------------------------|
D|--------------------------| Repeat ?x
A|--------------------------|
E|-0-1--0-0-1--0-1--0-0-3-1-|


Riff 3 (chorus)
[ Tab from: http://www.guitartabs.cc/tabs/s/such_a_surge/nie_mehr_lovesongs_btab_ver_2.html ]
G|---------------------------------------------------------------
D|---------------------------------------------------------------
A|---------------------------------------------------------------
E|-4-4-4-4-4-4-4-4-4-4-4-4-1--2--1-1-1-1-1-1-1-1-1-1-1-1-1-1-1-1-

G|------------------------------------------------------------------|
D|------------------------------------------------------------------| Repeat 
?x
A|------------------------------------------------------------------|
E|-/9-9-9-9-9-9-9-9-9-9-9-9-9-9-9-9\6-6-6-6-6-6-6-6-6-6-6-6-6-6-6-6-|



Riff 4 (bridge to solo)

G|---------------------------|
D|---------------------------|
A|---------------------------|
E|-0-0--0-0--0-0-0-0-0-0-0-0-|


Any Questions? (-MAIL ME: ZackDeLaRocha667@aol.com)
Comments