Such A Surge - Im Falschen Film Chords & Tabs

 

Im Falschen Film Chords & Tabs

Such A Surge Chords & Tabs

Version: 1 Type: Bass Tab 0 ratings
1 star 2 stars 3 stars 4 stars 5 stars
comments

Im Falschen Film Bass Tab

   
SONG: Im Falschen Film
ARTIST: Such A SURGE
ALBUM: Der SURGE Effekt
Tabbed by ZackDeLaRocha@aol.com (MrGentlman@aol.com)


Drop D Tuning (D,A,D,G



Before Playing Riff 1 hold this note

D|-9-----------|


Riff 1 (verse)

G|--------------------------------------------|
D|--------------------------------------------| Repeat ?x
A|--------------------------------------------|
D|-0--7--5--0--7--5--0--7--5--9-9-9-9-9-9-9-9-|


Riff 2 (Bridge part 1)
[ Tab from: http://www.guitartabs.cc/tabs/s/such_a_surge/im_falschen_film_btab.html ]
G|-----------------|
D|-----------------| Repeat 4x
A|-----------------|
D|-0-0-0-0-1-1-2-2-|


Riff 3 (Bridge part 2)

G|-----------------|
D|-----------------| Play 1 time
A|-----------------|
D|-5-5-5-5-5-5-1-2-|


Riff 4 (Chorus)

G|-------------------------------------------------|
D|-------------------------------------------------| Repeat ?x
A|-------------------------------------------------|
D|-0-1-2-2-0-2-9-9-9-9-9-9-0-1-2-2-0-2-5-5-5-5-5-5-|



Any Questions?(-Mail ME: ZackDeLaRocha667@aol.com)

Comments