Such A Surge - Ich Sehe Dich Chords & Tabs

 

Ich Sehe Dich Chords & Tabs

Such A Surge Chords & Tabs

Version: 2 Type: Bass Tab 0 ratings
1 star 2 stars 3 stars 4 stars 5 stars
comments

Ich Sehe Dich Bass Tab

   
Band: Such a SURGE
Song: Ich sehe dich
Album: Agoraphobic notes
Tabbed by MrGentlman@aol.com


Standard Tuning E,A,D,G
(use a pick)


Riff 1 (verse)

G|----7--3------------------7--3--------10-|
D|-0--------5---5-/3-/(5)0--------5---5/10-| Repeat ?x
A|-----------------------------------------|
E|-----------------------------------------|


Riff 2 (verse part 2)
[ Tab from: http://www.guitartabs.cc/tabs/s/such_a_surge/ich_sehe_dich_btab_ver_2.html ]
G|--------------------|
D|--------------------| Repeat ?x
A|-6-6-6/4--4/8--8--8-|
E|--------------------|


Riff 3 (chorus)

G|-----8-------------10------10/(8)------8------------10-------|
D|---8------------10-------------------8------------10---------|
A|-6-----4--4-4-/8------8--8---------6-----4--4-4-/8-----------|
E|--------------------------------------------------------4----|


Riff 4 (verse part 3)

G|-----------------3-1-------|
D|---------------------------|
A|-1-1----6-6h8--1--------3--|
E|----------------------4----|

Great Song!

Any questions? Mail me (MrGentlman@aol.com)
Comments