Such A Surge - Gegen Den Strom Chords & Tabs

 

Gegen Den Strom Chords & Tabs

Such A Surge Chords & Tabs

Version: 2 Type: Bass Tab 0 ratings
1 star 2 stars 3 stars 4 stars 5 stars
comments

Gegen Den Strom Bass Tab

   
Band: Such a SURGE
Song: Gegen den Strom
Album: Under Pressure
Tabbed by MrGentlman@aol.com


Standard Tuning E,A,D,G


Riff 1 (verse part 1)

G|-------------------------------------|
D|-0--0--7--3--3--5---0--0--7----------| Repeat ?x
A|-----------------------------3--3--5-|
E|-------------------------------------|


Riff 2 (verse part 2)

G|-------------------------------------|
D|-0--7--5--3--3--5---0--7--5----------| Repeat ?x
A|-----------------------------3--3--5-|
E|-------------------------------------|


Riff 2 (chorus)
[ Tab from: http://www.guitartabs.cc/tabs/s/such_a_surge/gegen_den_strom_btab_ver_2.html ]
G|---------------------|
D|---------------------| Repeat ?x
A|-3-3-3-3-5--3-3--3-5-|
E|---------------------|


Riff 3 (solo)

G|-----------------------------------------------------------------
D|-----------------------------------------------------------------
A|-5-5-5-5-5-5-5-5-5-5-5-5-5-5-5-5-3-3-3-3-3-3-3-3-3-3-3-3-3-3-3-3-
E|-----------------------------------------------------------------

G|-----7------7-------7------7------/5------5-------5------5--|
D|------------------------------------------------------------|
A|-5-5---5--5-----5-5---5--5----/3-3---3--3-----3-3---3--3----|
E|------------------------------------------------------------|

This is one of the best German Band ive ever heard, enjoy the Tab!

Any questions? Mail me (MrGentlman@aol.com)
Comments