Subway To Sally - Grabrede Chords & Tabs

 

Grabrede Chords & Tabs

Subway To Sally Chords & Tabs

Version: 1 Type: Chords 0 ratings
1 star 2 stars 3 stars 4 stars 5 stars
comments

Grabrede Chords

   
e                            G
Wenn unsre Schädel eins ins Leere glotzen 
D                   e
sieht man uns nicht an 
e                          G
wer Sieger, wer Verlierer war 
          D             e
wer armer oder reicher Mann 
e                     G
was wir dann sind ist ungewiss 
                 D                e
wahrscheinlich bleibt nur Finsternis 
a                   C
befrag den Teufel, frage deinen Gott ... *

e                            G
du kannst ein Kirchendiener sein 
           D            e
mit Chorgesang und Zölibat 
e                            G
als Papst die Welt bereisen gehn 
          D               e
mit Sekretär und eignem Staat 
e                          G
daß überm Himmel noch was sei 
            D             e
das ist Betrug, Hochstapelei 
        a                           C
und schreiben sie dir auch goldene Letter auf Granit: du nimmst nichts mit!  

*
[ Tab from: http://www.guitartabs.cc/tabs/s/subway_to_sally/grabrede_crd.html ]
e                           G
du kannst ein Börsenmakler sein 
           D               e
mit einem Konto in der Schweiz 
e                           G
du kannst ein Hausbesitzer sein 
     D               e
zerfressen fast von Geiz 
e                           G
ob du den Pfennig dreimal drehst 
              D              e
und auf der Strasse betteln gehst 
    a                                C
du kannst ein Säufer sein, im Mantel eine Flasche Sprit: du nimmst nichts mit!  

*

e
Gaukler, Lehrer, Maurer, Schreiber 
G                D
Mädchenhändler, Halsabschneider
e 
Staatsanwälte, Totengräber 
G              D 
Freier, Huren, Arbeitgeber
e 
Legionäre und Verräter 
G             D           e
Biedermänner, Attentäter 
   a                           C
Christ und Ketzer, Rastafari, Hindu und Schiit:  du nimmst nichts mit! 

*
===========================================================================
* Riff
|               |               |               |                
|----------------------------------------------------------------|
|----------------------------------------------------------------|
|----------------------------------------------------------------|
|--2---------2-----------5-------------------7-----------7-----7-|
|--2---------2-----------5-------------------7-----------7-----7-|
|--0---------0-----------3-----------0-------5-----------5-----5-|

|               |               |               |                
|----------------------------------------------------------------|
|----------------------------------------------------------------|
|--7-----8-----9-----7-------------------------------------------|
|--7-----8-----9-----7-------------2---------2---------5---------|
|--5-----6-----7-----5-------------2---------2---------5---------|
|--5-----6-----7-----5-------------0---------0---------3---------|
Comments