Suburban Legend - Endless Summer 2 Theme Chords & Tabs

 

Endless Summer 2 Theme Chords & Tabs

Suburban Legend Chords & Tabs

Version: 1 Type: Tab 0 ratings
1 star 2 stars 3 stars 4 stars 5 stars
comments

Endless Summer 2 Theme Tab

   
Two guitar parts. I play part two and Jarret plays part one.
I'll give both so you can play it with your homies.

h= Hammer on
p= pull off
s= slide



GUITAR I:

           FIGURE A
e| -------9-------------7---------
B| -------9-------------7---------  
G| ----10---10--------8---8------- 
D| -11---------11---9-------9-----
A| -------------------------------
E| -------------------------------


             FIGURE B
e| --------------------------------|
B| -14-9-14-16-12-16-18-14-16-18-16|
G| --------------------------------|
D| --------------------------------|
A| --------------------------------|
E| --------------------------------|

              FIGURE C
e| -----------------------|------------------------|
B| -14-9-14-12-11h12p11-9-|-14-9-14-16-------------|
G| -----------------------|------------------------|
D| -----------------------|------------------------|
A| -----------------------|------------------------|
E| -----------------------|------------------------|

               FIGURE D

e| --------------------------------|
B| -12-7-12-14-10-14-16-12-14-16-14|
G| --------------------------------|
D| --------------------------------|
A| --------------------------------|
E| --------------------------------|

             FIGURE E

e| --------------------|-------------------|
B| -12-7-12-10-9h10p9-7|-12-7-12-14--------|
G| --------------------|-------------------|
D| --------------------|-------------------|
A| --------------------|-------------------|
E| --------------------|-------------------|
[ Tab from: http://www.guitartabs.cc/tabs/s/suburban_legend/endless_summer_2_theme_tab.html ]
                SOLO: heavy distortion
e| ---------------?----------------|
B| ---------------?----------------|
G| ---------------?----------------|
D| ---------------?----------------|
A| ---------------?----------------|
E| ---------------?----------------|

GUITAR II:


        FIGURE 1:
e| -9--9--9--9--s-7--7--7--7--------|
B| -9--9--9--9--s-7--7--7--7--------|
G| -10-10-10-10-s-8--8--8--8--------|
D| -11-11-11-11-s-9--9--9--9--------|
A| ---------------------------------|
E| ---------------------------------|

         FIGURE 2:
e| -7-7-7-7-s-5-5-5-5---------------|
B| -7-7-7-7-s-5-5-5-5---------------|
G| -8-8-8-8-s-6-6-6-6---------------|
D| -9-9-9-9-s-7-7-7-7---------------|
A| ---------------------------------|
E| ---------------------------------|

          FIGURE 3:
e| -7-7-7-7-s-5-5-5-5-s-7-7-7-7-----------------|
B| -7-7-7-7-s-5-5-5-5-s-7-7-7-7-----------------|
G| -8-8-8-8-s-6-6-6-6-s-8-8-8-8-----------------|
D| -9-9-9-9-s-7-7-7-7-s-9-9-9-9-----------------|
A| ------------------------------7-7-7-7-7-9----|
E| ------------------------------5-5-5-5-5-7----|

           FIGURE 4: Heavy distortion
e| ------------------------------|
B| ------------------------------|
G| ------------------------------|
D| ------------------------------|
A| -11-x-11-x----9-x-9-x---------|
E| -9--x--9-x----7-x-7-x---------|

            FIGURE 5:
e| -9--9--9--s-7----------------
B| -9--9--9--s-7----------------
G| -10-10-10-s-8----------------
D| -11-11-11-s-9----------------
A| -----------------------------
E| -----------------------------


LAYOUT: Aww.. screw it, I'm too lazy to figure it out. Comback soon and i will 
have the solo. FOR INFO, email me at roymoose@aol.com
Comments