Submersed - Hollow Chords & Tabs

 

Hollow Chords & Tabs

Submersed Chords & Tabs

Version: 3 Type: Tab 0 ratings
1 star 2 stars 3 stars 4 stars 5 stars
comments

Hollow Tab

   
Band: Submersed (Best new band out there)
Song: Hollow
Album: In Due Time
Tabbed by: The Shea of Ithilien

Try copying into Notepad if it doesn't work with whatever else.

There weren't really any good tabs for this song, so I decided to sit down and figure it 
This is my first tab, so it may be wrong. This is how I play it, though, and it's good 
for me. If you like it, feel free to put it on any website you want, I just ask that I
be recognized for writing this tab out. Thanks, enjoy!

Drop Cb tuning (Cb-Gb-Cb-Fb-Ab-Db)

Intro
Guitar 1:
Db|-------------------------------------------------------------------|
Ab|-------------------------------------------------------------------|
Fb|-2----2---------5---------7-------2----2----------5---------7------| x2
Cb|--3----3---------------------------3----3--3/5---------------------|
Gb|---5----5----3----3-----5---5-------5----5------3---3-----5---5----|
Cb|-----------3-------3/5-5-----5-----------------3-----3/5-5-----5---|
								      |
Guitar 2 (2nd time guitar 1 plays):				      |
Db|-------------------------------------------------------------------|
Ab|------10-------------------------------10----------8-8h10-8--------|
Fb|-9-10-----------------------------9-10-----------------------------|
Cb|-------------------------------------------------------------------|
Gb|-------------------------------------------------------------------|
Cb|-------------------------------------------------------------------|

Verse
Guitar 1
Db|-----------------------------------------------------------------------|
Ab|-----------------------------------------------------------------------|
Fb|-----------------------------------------------------------------------|
Cb|-----------5-------------3-xx-3/5-------------5-------------2h3h2h0----|
Gb|-0-0-0-0-0-5---3-3-3-3-3-3-xx-3/5---0-0-0-0-0-5---3-3-3-3-3--------3h0-|
Cb|-0-0-0-0-0-----3-3-3-3-3------------0-0-0-0-0-----3-3-3-3-3-----------3|
								          |
Guitar 2							          |
Db|-----------------------------------------------------------------------|
Ab|-----------------------------------------------------------------------|
Fb|-----------------------------------------------------------------------|
Cb|-----------5-------------3-xx-3/5-------------5-------------3-xx-3/5---|
Gb|-0-0-0-0-0-5---3-3-3-3-3-3-xx-3/5---0-0-0-0-0-5---3-3-3-3-3-3-xx-3/5---|
Cb|-0-0-0-0-0-----3-3-3-3-3------------0-0-0-0-0-----3-3-3-3-3------------|

Guitar 1:
Db|------------------------------------------------------------------|
Ab|------------------------------------------------------------------|
Fb|------------------------------------------------------------------|
Cb|--------------7--7-----------3-xx-3/5-------------5-------------3-|
Gb|-0-0-0-0-0-3h5-h5--3-3-3-3-3-3-xx-3/5---0-0-0-0-0-5---3-3-3-3-3-3-|
Cb|-0-0-0-0-0---------3-3-3-3-3------------0-0-0-0-0-----3-3-3-3-3---|
								     |
Guitar 2:							     |
Db|------------------------------------------------------------------|
Ab|------------------------------------------------------------------|
Fb|------------------------------------------------------------------|
Cb|-----------5-----------------3-xx-3/5-------------5-------------3-|
Gb|-0-0-0-0-0-5-------3-3-3-3-3-3-xx-3/5---0-0-0-0-0-5---3-3-3-3-3-3-|
Cb|-0-0-0-0-0---------3-3-3-3-3------------0-0-0-0-0-----3-3-3-3-3---|

Guitar 1:
Db|------------------------------------------------------------------------------|
Ab|------------------------------------------------------------------------------|
Fb|------------------------------------------------------------------------------|
Cb|19\-------------5-------------3-xx-3/5---------------5-------------2h3h2h0----|
Gb|19\-0-0-0-0-0---5---3-3-3-3-3-3-xx-3/5---0-0-0-0-0---5---3-3-3-3-3--------3h0-|
Cb|----0-0-0-0-0-------3-3-3-3-3------------0-0-0-0-0-------3-3-3-3-3-----------3|
								                 |
Guitar 2:							                 |
Db|------------------------------------------------------------------------------|
Ab|------------------------------------------------------------------------------|
Fb|------------------------------------------------------------------------------|
Cb|19\-----------3/5~------------3-xx-3/5-------------3/5~------------3-xx-3/5---|
Gb|19\-0-0-0-0-0-3/5~--3-3-3-3-3-3-xx-3/5---0-0-0-0-0-3/5~--3-3-3-3-3-3-xx-3/5---|
Cb|----0-0-0-0-0-------3-3-3-3-3------------0-0-0-0-0-------3-3-3-3-3------------|

Guitar 1&2:
Db|-----------------------------------------------------------------|
Ab|-----------------------------------------------------------------|
Fb|-----------------------------------------------------------------|
Cb|------------5--------------3-xx-3/5-------------5-------------3/-|
Gb|-0-0-0-0-0--5----3-3-3-3-3-3-xx-3/5---0-0-0-0-0-5---3-3-3-3-3-3/-|
Cb|-0-0-0-0-0-------3-3-3-3-3------------0-0-0-0-0-----3-3-3-3-3----|
								    |
Guitar 2:							    |
Db|-----------------------------------------------------------------|
Ab|-----------------------------------------------------------------|
Fb|-----------------------------------------------------------------|
Cb|-----------3/5~------------3-xx-3/5-------------5------------3/--|
Gb|-0-0-0-0-0-3/5~--3-3-3-3-3-3-xx-3/5---0-0-0-0-0-5--3-3-3-3-3-3/--|
Cb|-0-0-0-0-0-------3-3-3-3-3------------0-0-0-0-0----3-3-3-3-3-----|

Chorus
Guitar 1:
Db|--------------------------------------------------------------------------|
Ab|--------------------------------------------------------------------------|
Fb|--------------------------------------------------------------------------|
Cb|-------------------------------------10h12--------------------------------|
Gb|17\-0---------10---3---------5--10h12------0---------10---3---------5---0-|
Cb|17\-0---------10---3---------5-------------0---------10---3---------5---0-|
						                             |
Guitar 2:				      	                             |
Db|-------------8--------------8-----------------------8--------------8------|
Ab|-----5-6--5-6-------5-6--5-6----------------5-6--5-6-------5-6--5-6-------|
Fb|--------------------------------------------------------------------------|
Cb|--------------------------------------------------------------------------|
Gb|--------------------------------------------------------------------------|
Cb|--------------------------------------------------------------------------|

Verse 2
Guitar 1
Db|-----------------------------------------------------------------------|
Ab|-----------------------------------------------------------------------|
Fb|-----------------------------------------------------------------------|
Cb|-----------5-------------3-xx-3/5-------------5-------------2h3h2h0----|
Gb|-0-0-0-0-0-5---3-3-3-3-3-3-xx-3/5---0-0-0-0-0-5---3-3-3-3-3--------3h0-|
Cb|-0-0-0-0-0-----3-3-3-3-3------------0-0-0-0-0-----3-3-3-3-3-----------3|
									  |
Guitar 2								  |
Db|-----------------------------------------------------------------------|
Ab|-----------------------------------------------------------------------|
Fb|-----------------------------------------------------------------------|
Cb|-----------5-------------3-xx-3/5-------------5-------------3-xx-3/5---|
Gb|-0-0-0-0-0-5---3-3-3-3-3-3-xx-3/5---0-0-0-0-0-5---3-3-3-3-3-3-xx-3/5---|
Cb|-0-0-0-0-0-----3-3-3-3-3------------0-0-0-0-0-----3-3-3-3-3------------|

Guitar 1:
Db|------------------------------------------------------------------|
Ab|------------------------------------------------------------------|
Fb|------------------------------------------------------------------|
Cb|--------------7--7-----------3-xx-3/5-------------5-------------3-|
Gb|-0-0-0-0-0-3h5-h5--3-3-3-3-3-3-xx-3/5---0-0-0-0-0-5---3-3-3-3-3-3-|
Cb|-0-0-0-0-0---------3-3-3-3-3------------0-0-0-0-0-----3-3-3-3-3---|
								     |
Guitar 2:							     |
Db|------------------------------------------------------------------|
Ab|------------------------------------------------------------------|
Fb|------------------------------------------------------------------|
Cb|-----------5-----------------3-xx-3/5-------------5-------------3-|
Gb|-0-0-0-0-0-5-------3-3-3-3-3-3-xx-3/5---0-0-0-0-0-5---3-3-3-3-3-3-|
Cb|-0-0-0-0-0---------3-3-3-3-3------------0-0-0-0-0-----3-3-3-3-3---|
[ Tab from: http://www.guitartabs.cc/tabs/s/submersed/hollow_tab_ver_3.html ]
Guitar 1:
Db|-----------------------------------------------------------|
Ab|-----------------------------------------------------------|
Fb|-----------------------------------------------------------|
Cb|-----------------------------------------------------------|
Gb|-0---3-10-0----------------------3--------10---------------|
Cb|-0---3-10-0----------------------3--------10---------------|
							      |
Guitar 2:						      |
Db|----13-12--------------------------------------------------|
Ab|-----------------------------------------------------------|
Fb|-----------------------------------------------------------|
Cb|-----------------------------------------------------------|
Gb|-0----------10h8-8h7-7h5-5h3-8h5-xxx3-3-3-xxx10-10-10------|
Cb|-0--------00----0---0---0---0----xxx3-3-3-xxx10-10-10------|

Guitar 1&2:
Db|---------------------------------------------------|
Ab|---------------------------------------------------|
Fb|---------------------------------------------------|
Cb|---------------------------------------------------|x2
Gb|---10h8-8h7-7h5-5h3-8h5-xxx3-3-3-xxx10-10-10-------|
Cb|-00----0---0---0---0----xxx3-3-3-xxx10-10-10-------|

Chorus
Guitar 1:
Db|--------------------------------------------------------------------------|
Ab|--------------------------------------------------------------------------|
Fb|--------------------------------------------------------------------------|
Cb|-------------------------------------10h12--------------------------------|
Gb|17\-0---------10---3---------5--10h12------0---------10---3---------5---0-|
Cb|17\-0---------10---3---------5-------------0---------10---3---------5---0-|
						                            |
Guitar 2:				      	                            |
Db|-------------8--------------8-----------------------8--------------8------|
Ab|-----5-6--5-6-------5-6--5-6----------------5-6--5-6-------5-6--5-6-------|
Fb|--------------------------------------------------------------------------|
Cb|--------------------------------------------------------------------------|
Gb|--------------------------------------------------------------------------|
Cb|--------------------------------------------------------------------------|

Guitar 1:
Db|---------------------------------------------------------------------------|
Ab|---------------------------------------------------------------------------|
Fb|---------------------------------------------------------------------------|
Cb|-------------------------------------10h12---------------------------------|
Gb|17\-0---------10---3---------5--10h12------0---------10---3---------5---0-0|
Cb|17\-0---------10---3---------5-------------0---------10---3---------5---0-0|
						                             |
Guitar 2:				      	                            |
Db|-------------8--------------8-----------------------8--------------8-------|
Ab|-----5-6--5-6-------5-6--5-6----------------5-6--5-6-------5-6--5-6--------|
Fb|---------------------------------------------------------------------------|
Cb|---------------------------------------------------------------------------|
Gb|------------------------------------------------------------------------0-0|
Cb|------------------------------------------------------------------------0-0|

Bridge
Db|-----------------------------------------------------|
Ab|-----------------------------------------------------|
Fb|-----------------------------------------------------|
Cb|------------10-10-8----------------------------------|
Gb|--10-10-12-----------13-13-12--12-12-10--10-10-12----|
Cb|00--------00-------00--------00--------00---------| -|
Guitar 2:			                     |
Db|--------------------------------------------------|
Ab|--------------------------------------------------|
Fb|--------------------------------------------------|
Cb|--------------------------------------------------|
Gb|00--------00-------00--------00--------00---------|
Cb|00--------00-------00--------00--------00---------|

Db|-------------------------------------------------------------|
Ab|-------------------------------------------------------------|
Fb|-------------------------------------------------------------|
Cb|------------10-10-8------------------------------------------|
Gb|--10-10-12-----------13-13-12--12-12-10~~~~~~~~~~------------|
Cb|00--------00-------00--------00---------------------------| -|
Guitar 2:			                             |
Db|----------------------------------------------------------|
Ab|----------------------------------------------------------|
Fb|---------------------------------------10-9-7-10-9-7------|
Cb|-----------------------------------------------------10-7-|
Gb|33--------33-------33--------33---------------------------|
Cb|33--------33-------33--------33---------------------------|

Guitar 1:
Db|--------------------------------------------------|
Ab|--------------------------------------------------|
Fb|--------------------------------------------------|
Cb|------------10-10-8-------------------------------|
Gb|--10-10-12-----------13-13-12--12-12-10--10-10-12-|
Cb|00--------00-------00--------00--------00---------|
				                     |
Guitar 2:			                     |
Db|--------------------------------------------------|
Ab|--------------------------------------------------|
Fb|--------------------------------------------------|
Cb|--------------------------------------------------|
Gb|00--------00-------00--------00--------00---------|
Cb|00--------00-------00--------00--------00---------|

Guitar 1&2:
Db|-------------------------------------|
Ab|-------------------------------------|
Fb|-------------------------------------|
Cb|-------------------------------------|
Gb|-------------------------------------|
Cb|-7-7-7-7-7-7-7-7-8-8-8-8-10-10-10-10-|

...You can make me SCREAM!!!

			Chorus
                  Guitar 1:
		Db|---------------------|
		Ab|---------------------|
		Fb|---------------------|
		Cb|---------------------|
		Gb|10---3---------5---0-|
		Cb|10---3---------5---0-|
					|
		Guitar 2:		|
		Db|--------------8------|
		Ab|------5-6--5-6-------|
		Fb|---------------------|
		Cb|---------------------|
		Gb|---------------------|
		Cb|---------------------|

Guitar 1:
Db|------------------------------------------------------------------------------------------|
Ab|------------------------------------------------------------------------------------------|
Fb|------------------------------------------------------------------------------------------|
Cb|-------------------------------------10h12------------------------------------------------|
Gb|17\-0---------10---3---------5--10h12------0---------10---3---------5---------------------|
Cb|17\-0---------10---3---------5-------------0---------10---3---------5---------------------|
						                            |
Guitar 2:				      	                            |
Db|-------------8--------------8-----------------------8--------------8----------------------|
Ab|-----5-6--5-6-------5-6--5-6----------------5-6--5-6-------5-6--5-6----12h14-12h10-12h10--|
Fb|----------------------------------------------------------------------------------------12|
Cb|------------------------------------------------------------------------------------------|
Gb|------------------------------------------------------------------------------------------|
Cb|------------------------------------------------------------------------------------------|

Guitar 1:
Db|----------------------------|
Ab|----------------------------|
Fb|----------------------------|
Cb|----------------------------|
Gb|-0---------10---3---------5-|
Cb|-0---------10---3---------5-|
			       |
Guitar 2:	               |
Db|----------8--------------8--|
Ab|--5-6--5-6-------5-6--5-6---|
Fb|----------------------------|
Cb|----------------------------|
Gb|----------------------------|
Cb|----------------------------|

Outro
Guitar 1&2
Db|---------------------------------------------|
Ab|---------------------------------------------|
Fb|---------------------------------------------|
Cb|---------------------------------------------|x3
Gb|--7h8-7h8-7h8-7h8-7h8-xxx-3-3-3-xxx-10-10-10-|
Cb|00---0---0---0---0----xxx-3-3-3-xxx-10-10-10-|

Guitar 1&2
Db|--------------------------------------------------------------------------|
Ab|--------------------------------------------------------------------------|
Fb|-----------------------9h10-10-10-10h12-12-12-12h14-14-14-14h17-17-17-----|
Cb|--------------------------------------------------------------------------|
Gb|--7h8-7h8-7h8-7h8-7h8-------------------------------------------------0-0-|
Cb|00---0---0---0---0----------------------------------------------------0-0-|

That's all really. Keep on rockin'!
Comments