Submersed - Hollow Chords & Tabs

 

Hollow Chords & Tabs

Submersed Chords & Tabs

Version: 2 Type: Tab 0 ratings
1 star 2 stars 3 stars 4 stars 5 stars
comments

Hollow Tab

   
-----------------------------------------------------------------------------
			     HOLLOW - Submersed
-----------------------------------------------------------------------------
Tabbed by:reuben
Email:rubes_intheleast88@hotmail.com

Tuning:Drop D; down half step

Intro

gtr1(clean)
     fade in.....................................
eb|-----------------------------------------------------------------
Bb|-----------------------------------------------------------------
Gb|-----------------------------------------------------------------
Db|-2.3*--------------------2.3*------------------------------2.3*--
Ab|-----------------------------------------------5*----------------
Db|----------------------------------7*----5*-----------------------

gtr2(clean)
eb|-----------------------------------------------------------------|
Bb|-----------------------------------------------------------------|
Gb|-2-----------2-------------------------5---------------7---------|
Db|-----3-----------3-------------------------3---------5-----5-----|
Ab|-------5-----------5-----------------3-------3p0-3-----------5-\-|
Db|---------------------------------3-------------------------------|
gtr1
eb|-----------------------------------------------------------------|
Bb|-----------------------------------------------------------------|
Gb|-----------------------------------------------------------------|
Db|-----------------------------------------------------------------|
Ab|-----------------5*------------------------------5*--------------|
Db|-------------5*------------------------------5*------------------|

gtr2
eb|-----------------------------------------------------------------|
Bb|-----------------------------------------------------------------|
Gb|-2-----------2-------------------------5---------------7---------|
Db|-----3-----------3-------3/5---------------3---------5-----5-----|
Ab|-------5-----------5-----------------3-------3p0-3-----------5-\-|
Db|---------------------------------3-------------------------------|
gtr1
eb|-----------------------------------------------------------------|
Bb|-----------------------------------------------------------------|
Gb|-----------------------------------------------------------------|
Db|-----------------------------------------------------------------|
Ab|-----------------5*------------------------------5*--------------|
Db|-------------5*------------------------------5*------------------|


gtr2
eb|-----------------------------------------------------------------|
Bb|-----------------------------------------------------------------|
Gb|-2-----------2-------------------------5---------------7---------|
Db|-----3-----------3-------------------------3---------5-----5-----|
Ab|-------5-----------5-----------------3-------3p0-3-----------5-\-|
Db|---------------------------------3-------------------------------|
gtr1
eb|-----------------------------------------------------------------|
Bb|------------10---------------------------------------------------|
Gb|-9----10---------------------------------------------------------|
Db|-----------------7*----------------------------------------------|
Ab|-------------------------------------------------5*--------------|
Db|---------------------------------------------5*------------------|

gtr2
eb|-----------------------------------------------------------------|
Bb|-----------------------------------------------------------------|
Gb|-2-----------2-------------------------5---------------7---------|
Db|-----3-----------3-------3/5---------------3---------5-----5-----|
Ab|-------5-----------5-----------------3-------3p0-3-----------5-\-|
Db|---------------------------------3-------------------------------|
gtr1
eb|------------8----------------------------------------------------|
Bb|--------------------------------10-----------8-10-8------10----\-|
Gb|-9----10-----------------------------------7---------------------|
Db|-----------------7*----------------------------------------------|
Ab|-----------------------------------------------------------------|
Db|-----------------------------------------------------------------|


verse1
     To you.......              Im all    I've    left      undone
gtr1(dist)
    PM.............|                PM.............|       PM..|
eb|-----------------------------------------------------------------|
Bb|-----------------------------------------------------------------|
Gb|-----------------------------------------------------------------|
Db|-------------------------------------------------------x---------|
Ab|-----------------5-------------------------------3-----3-----3h5-|
Db|-0---0-0---0---0-----------------3---3-3---3---0---------0-0-----|
gtr2(clean)
eb|-----------------------------------------------------------------|
Bb|-----------------------------------------------------------------|
Gb|-2-----------2-------------------------5---------------7---------|
Db|-----3-----------3-------------------------3---------5-----5-----|
Ab|-------5-----------5-----------------3-------3p0-3-----------5-\-|
Db|---------------------------------3-------------------------------|


gtr1
    PM.............|                PM.............|     
eb|-----------------------------------------------------------------|
Bb|-----------------------------------------------------------------|
Gb|-----------------------------------------------------------------|
Db|-------------------------------------------------2h3p2p0---------|
Ab|-----------------5-------------\-------------------------3p0-3h5-|
Db|-0---0-0---0---0-----------------3---3-3---3---0-----------------|
gtr2
eb|-----------------------------------------------------------------|
Bb|-----------------------------------------------------------------|
Gb|-2-----------2-------------------------5---------------7---------|
Db|-----3-----------3-------3/5---------------3---------5-----5-----|
Ab|-------5-----------5-----------------3-------3p0-3-----------5-\-|
Db|---------------------------------3-------------------------------|


gtr1
    PM.............|                PM.............|       PM..|
eb|-----------------------------------------------------------------|
Bb|-----------------------------------------------------------------|
Gb|-----------------------------------------------------------------|
Db|---------------------7---7~~~~-\-----------------------x---------|
Ab|-----------------3h5---5-------------------------3-----3-----3h5-|
Db|-0---0-0---0---0-----------------3---3-3---0---0---------0-0-----|
gtr2
eb|-----------------------------------------------------------------|
Bb|-----------------------------------------------------------------|
Gb|-2-----------2-------------------------5---------------7---------|
Db|-----3-----------3-------------------------3---------5-----5-----|
Ab|-------5-----------5-----------------3-------3p0-3-----------5-\-|
Db|---------------------------------3-------------------------------|


                             lift me up....................
gtr1
    PM.............|                PM.............|      
eb|-----------------------------------------------------------------|
Bb|-----------------------------------------------------------------|
Gb|-----------------------------------------------------------------|
Db|-----------------5*--------------------------------------10\-----|
Ab|-----------------5*------------------------------3~~~~~--10\-----|
Db|-0---0-0---0---0-----------------3---3-3---0-0-0-----------------|
gtr2
eb|-----------------------------------------------------------------|
Bb|-----------------------------------------------------------------|
Gb|-2-----------2-------------------------5---------------7---------|
Db|-----3-----------3-------------------------3---------5-----5-----|
Ab|-------5-----------5-----------------3-------3p0-3-----------5-\-|
Db|---------------------------------3-------------------------------|


      You take......          The breath you   did........n't   make
gtr1(dist)
    PM.............|PH......        PM.............|       PM..|
eb|-----------------------------------------------------------------|
Bb|-----------------------------------------------------------------|
Gb|-----------------------------------------------------------------|
Db|-----------------------------------------------------------------|
Ab|-0---0-0---0---0-5~~~~~----------3---3-3---3---0-3-----3-----3h5-|
Db|-0---0-0---0---0-----------------3---3-3---3---0---------0-0-----|
gtr2(dist)
    PM.............|                PM.............|       PM..|
eb|-----------------------------------------------------------------|
Bb|-----------------------------------------------------------------|
Gb|-----------------------------------------------------------------|
Db|-----------------3-------------x-----------------------------2h4-|
Ab|-0---0-0---0---0-5-------------x-3---3-3---3-----3-----3---------|
Db|-0---0-0---0---0-----------------3---3-3---3---0---------0-0-----|


gtr1(dist)
    PM.............|PH......        PM.............|
eb|-----------------------------------------------------------------|
Bb|-----------------------------------------------------------------|
Gb|-----------------------------------------------------------------|
Db|-------------------------------x-----------------2h3p2p0---------|
Ab|-0---0-0---0---0-5~~~~~--------x-3---3-3---3---0---------3p0-3h5-|
Db|-0---0-0---0---0-----------------3---3-3---3---0-----------------|
gtr2(dist)
    PM.............|                PM...........|
eb|-----------------------------------------------------------------|
Bb|-----------------------------------------------------------------|
Gb|-----------------2-----------------------------------------------|
Db|-----------------3~~~~---------x-----------------2h3p2p0---------|
Ab|-0---0-0---0-----5-------------x-3---3-3---3---0---------3p0-3h5-|
Db|-0---0-0---0---0-----------------3---3-3---3---------------------|


gtr1(dist)
    PM.............|PH....          PM.............|      PM...|
eb|-----------------------------------------------------------------|
Bb|-----------------------------------------------------------------|
Gb|-----------------------------------------------------------------|
Db|-----------------7~~~----7---------------------------------------|
Ab|-0---0-0---0---0-5~~~~~5---------3---3-3---3---3-3---3-3-----3h5-|
Db|-0---0-0---0---0-----------------3---3-3---3---3---------0-0-----|
gtr2(dist)
    PM.............|                PM.............|       PM..|
eb|-----------------------------------------------------------------|
Bb|-----------------1-----------------------------------------------|
Gb|-----------------2-----------------------------------------------|
Db|-----------------0-----------------------------------------------|
Ab|-0---0-0---0---0-0---------------3---3-3---3---0-3-----3-----3h5-|
Db|-0---0-0---0---0-----------------3---3-3---3---0---------0-0-----|

                          Lift me up my soul's so hollow............
gtr1
    PM.............|                PM.............|              
eb|-----------------------------------------------------------------|
Bb|-----------------------------------------------------------------|
Gb|-----------------------------------------------------------------|
Db|-----------------7~~~--------------------------------------------|
Ab|-0---0-0---0---0-5~~~~-----------3---3-3---3---3-3bbbbbbbbbbb5-/-|
Db|-0---0-0---0---0-----------------3---3-3---3---3-----------------|
gtr2
    PM.............|                PM.............|            
eb|-----------------------------------------------------------------|
Bb|-----------------------------------------------------------------|
Gb|-----------------2~~~~-------------------------------------------|
Db|-----------------3~~~--------------------------------------------|
Ab|-0---0-0---0-0-0-5---------------3---3-3---3---3-----------------|
Db|-0---0-0---0-0-0-----------------3---3-3---3---3-----------------|

gtr1    
eb|---------------------------------------------------------5*------|
Bb|---------------------------------------------------------5*------|
Gb|---------------------------------------------------------5*------|
Db|---------------------------------------------------------5*------|
Ab|---------------------------------------------------------5*------|
Db|---------------------------------------------------------5*------|
gtr2(clean)
eb|-----------------------------------------------------------------|
Bb|-----------------------------13----------------------------------|
Gb|-----------------------------------------------1212--------------|
Db|-----14--15--14------14--15------15--1515--15151212--------------|
Ab|-15--------------15--------------15--1515--15151010--------------|
Db|---------------------------------15--1515--1515------------------|


chorus
         You   can make     me scream        inter             nal...-
gtr1(dist)
eb|-----------------------------------------------------------------|
Bb|-3-----3-3-3-3---3-3-3-3-3-3-3-3---------------------------------|
Gb|-2-----2-2-2-2---2-2-2-2-2-2-2-2-5-----5-5---5-5-5-5-5---5-5-5-5-|
Db|-0-----0-0-0-0---0-0-0-0-0-0-0-0-5-----5-5---5-5-5-5-5---5-5-5-5-|
Ab|-0-----0-0-0-0---0-0-0-0-0-0-0-0-3-----3-3---3-3-3-3-3---3-3-3-3-|
Db|-0-----0-0-0-0---0-0-0-0-0-0-0-0---------------------------------|
gtr2(dist)
eb|-----------------------------8-----------------------------------|
Bb|-------------------------6-------8-----8-8---8-8-8-8-8---8-8-8-8-|
Gb|-7-----7-7-7-7---7-7-7-7---------7-----7-7---7-7-7-7-7---7-7-7-7-|
Db|-7-----7-7-7-7---7-7-7-7---------5-----5-5---5-5-5-5-5---5-5-5-5-|
Ab|-5-----5-5-5-5---5-5-5-5---------5-----5-5---5-5-5-5-5---5-5-5-5-|
Db|-0-----0-0-0-0---0-0-0-0---------5-----5-5---5-5-5-5-5---5-5-5-5-|

    .......-ly..............................................
gtr1
eb|-----------------------------------------------------------------|
Bb|-6---6-6-6---6-6-6-6-6---6-6-6-6-8-----8-8-8---8-8-8-------------|
Gb|-5---5-5-5---5-5-5-5-5---5-5-5-5-7-----7-7-7---7-7-7-7-7-----5h7-|
Db|-3---3-3-3---3-3-3-3-3---3-3-3-3-5-----5-5-5---5-5-5-5-5-5h7-----|
Ab|-3---3-3-3---3-3-3-3-3---3-3-3-3-5-----5-5-5---5-5-5-5-5---------|
Db|-3---3-3-3---3-3-3-3-3---3-3-3-3-5-----5-5-5---5-5-5-5-5---------|
gtr2
eb|-----------------------------------------------------------------|
Bb|-----------------------------13-(15)---151515--1515151515--------|
Gb|---------------------------------12----121212--1212121212--------|
Db|-----14--15~~~~------14--15------12----121212--1212121212--------|
Ab|-15-------------/15--------------10----101010--1010101010--------|
Db|-----------------------------------------------------------------|


gtr1
eb|-----------------------------------------------------------------|
Bb|-3-----3-3-3-3---3-3-3-3-3-3-3-3---------------------------------|
Gb|-2-----2-2-2-2---2-2-2-2-2-2-2-2-5-----5-5---5-5-5-5-5---5-5-5-5-|
Db|-0-----0-0-0-0---0-0-0-0-0-0-0-0-5-----5-5---5-5-5-5-5---5-5-5-5-|
Ab|-0-----0-0-0-0---0-0-0-0-0-0-0-0-3-----3-3---3-3-3-3-3---3-3-3-3-|
Db|-0-----0-0-0-0---0-0-0-0-0-0-0-0---------------------------------|
gtr2
eb|-----------------------------8-----------------------------------|
Bb|-------------------------6-------8-----8-8---8-8-8-8-8---8-8-8-8-|
Gb|-7-----7-7-7-7---7-7-7-7---------7-----7-7---7-7-7-7-7---7-7-7-7-|
Db|-7-----7-7-7-7---7-7-7-7---------5-----5-5---5-5-5-5-5---5-5-5-5-|
Ab|-5-----5-5-5-5---5-5-5-5---------5-----5-5---5-5-5-5-5---5-5-5-5-|
Db|-0-----0-0-0-0---0-0-0-0---------5-----5-5---5-5-5-5-5---5-5-5-5-|


gtr1
eb|-----------------------------------------------------------------|
Bb|-6---6-6-6---6-6-6-6-6---6-6-6-6-8-----8-8-8---8-8-8-8-8-8-8-8-x-|
Gb|-5---5-5-5---5-5-5-5-5---5-5-5-5-7-----7-7-7---7-7-7-7-7-7-7-7-x-|
Db|-3---3-3-3---3-3-3-3-3---3-3-3-3-5-----5-5-5---5-5-5-5-5-5-5-5-x-|
Ab|-3---3-3-3---3-3-3-3-3---3-3-3-3-5-----5-5-5---5-5-5-5-5-5-5-5-x-|
Db|-3---3-3-3---3-3-3-3-3---3-3-3-3-5-----5-5-5---5-5-5-5-5-5-5-5-x-|
gtr2
eb|-----------------------------------------------------------------|
Bb|-----------------------------13-(15)---151515--1515151515151515x-|
Gb|---------------------------------12----121212--1212121212121212x-|
Db|-----14--15~~~~------14--15------12----121212--1212121212121212x-|
Ab|-15-------------/15--------------10----101010--1010101010101010x-|
Db|-----------------------------------------------------------------|


gtr1
eb|-----------------------------------------------------------------|
Bb|-----------------------------------------------------------------|
Gb|---------------------------------------------------12*-----------|
Db|---------------------------------------------12*-----------------|
Ab|-----------------5*----------------------------------------------|
Db|-------------5*----------------------------------------/15\\\\---|


verse2
        You see                  the things    I cannot change
gtr1(dist)
    PM.............|                PM.............|       PM..|
eb|-----------------------------------------------------------------|
Bb|-----------------------------------------------------------------|
Gb|-----------------------------------------------------------------|
Db|-------------------------------------------------------x---------|
Ab|-----------------5-------------------------------3-----3-----3h5-|
Db|-0---0-0---0-x-0-----------------3---3-3---3---0---------0-0-----|
gtr2(clean)
eb|-----------------------------------------------------------------|
Bb|-----------------------------------------------------------------|
Gb|-2-----------2-------------------------5---------------7---------|
Db|-----3-----------3-------------------------3---------------5-----|
Ab|-------5-----------5-----------------3-------3p0-----5-------5-\-|
Db|---------------------------------3---------------5---------------|


gtr1
    PM.............|                PM.............|     
eb|-----------------------------------------------------------------|
Bb|-----------------------------------------------------------------|
Gb|-----------------------------------------------------------------|
Db|-------------------------------------------------2h3p2p0---------|
Ab|-----------------5-------------\-------------------------3p0-3h5-|
Db|-0---0-0---0-x-0-----------------3---3-3---3-x-0-----------------|
gtr2
eb|-----------------------------------------------------------------|
Bb|-----------------------------------------------------------------|
Gb|-2-----------2-------------------------5---------------7---------|
Db|-----3-----------3-------3/5---------------3---------------5-----|
Ab|-------5-----------5-----------------3-------3p0-----5-------5-\-|
Db|---------------------------------3---------------5---------------|


gtr1
    PM.............|                PM.............|       PM..|
eb|-----------------------------------------------------------------|
Bb|-----------------------------------------------------------------|
Gb|-----------------------------------------------------------------|
Db|---------------------7---7~~~~-\-----------------------x---------|
Ab|-----------------3h5---5-------------------------3-----3-----3h5-|
Db|-0---0-0---0-x-0-----------------3---3-3---0---0---------0-0-----|
gtr2
eb|-----------------------------------------------------------------|
Bb|-----------------------------------------------------------------|
Gb|-2-----------2-------------------------5---------------7---------|
Db|-----3-----------3-------------------------3---------------5-----|
Ab|-------5-----------5-----------------3-------3p0-----5-------5-\-|
Db|---------------------------------3---------------5---------------|

                                           Lift me up..............
gtr1
    PM.............|                PM.............|      
eb|-----------------------------------------------------------------|
Bb|-----------------------------------------------------------------|
Gb|-----------------------------------------------------------------|
Db|-------------------------5*--------------------------------------|
Ab|-----------------5*------------------------------3bbbbbbbbbbbb5--|
Db|-0---0-0---0-0-0-----------------3---3-3---0---0-----------------|
gtr2
eb|-----------------------------------------------------------------|
Bb|-----------------------------------------------------------------|
Gb|-2-----------2---------------------------------------------------|
Db|-----3-----------3--------------------------------------12\------|
Ab|-------5-----------5------------------------------------12\------|
Db|-----------------------------------------------------------------|


 We've made                 all from          the sum       of   none
gtr1
eb|-----------------------------------------------------------------|
Bb|-----------------------------------------------------------------|
Gb|-----------------7-----------------------------------------------|
Db|-----------------0-----------------------------------------------|
Ab|-0---------------5---------------3---------------3~~~~~~~--------|
Db|-0-------------------------------3-------------------------------|
gtr2
   PM..|                           PM....|         PM....|
eb|-----------------------------------------------------------------|
Bb|-----------------------------------------------------------------|
Gb|---------------------------------------5-----5-5-------7-----7-7-|
Db|-----5p0-x-3p0-x-2p0-x-----x-3p0-------3-----3-3-------5-----5-5-|
Ab|---------------------x-3p0-x-----3-3-3-3-----3-3-5-5-5-5-----5-5-|
Db|-0-0-----------------------------3-3-3-3-----3-3-5-5-5-5-----5-5-|

                              All that         we have        become 
gtr1
eb|-----------------------------------------------------------------|
Bb|---------------------------------6-------------------------------|
Gb|-7-------------------------------5-------------------------------|
Db|-4-------------------------------3-------------------------------|
Ab|-5-------------------------------3---------------3bbbbbbbbbbbbb5-|
Db|-0---------------------------------------------------------------|
gtr2
   PM..|                           PM....|         PM....|
eb|-----------------------------------------------------------------|
Bb|-----------------------------------------------------------------|
Gb|---------------------------------------5-----5-5-------7-----7-7-|
Db|-----5p0-x-3p0-x-2p0-x-----x-3p0-------3-----3-3-------5-----5-5-|
Ab|---------------------x-3p0-x-----3-3-3-3-----3-3-5-5-5-5-----5-5-|
Db|-0-0-----------------------------3-3-3-3-----3-3-5-5-5-5-----5-5-|


gtr1
   PM..|                           PM....|         PM....|
eb|-----------------------------------------------------------------|
Bb|-----------------------------------------------------------------|
Gb|---------------------------------------5-----5-5-------7-----7-7-|
Db|-----5p0-x-3p0-x-2p0-x-----x-3p0-------3-----3-3-------5-----5-5-|
Ab|---------------------x-3p0-x-----3-3-3-3-----3-3-5-5-5-5-----5-5-|
Db|-0-0-----------------------------3-3-3-3-----3-3-5-5-5-5-----5-5-|
gtr2
   PM..|                           PM....|         PM....|
eb|-----------------------------------------------------------------|
Bb|-----------------------------------------------------------------|
Gb|---------------------------------------5-----5-5-------7-----7-7-|
Db|-----5p0-x-3p0-x-2p0-x-----x-3p0-------3-----3-3-------5-----5-5-|
Ab|---------------------x-3p0-x-----3-3-3-3-----3-3-5-5-5-5-----5-5-|
Db|-0-0-----------------------------3-3-3-3-----3-3-5-5-5-5-----5-5-|

[ Tab from: http://www.guitartabs.cc/tabs/s/submersed/hollow_tab_ver_2.html ]
gtr1
   PM..|                           PM....|         PM....|
eb|-----------------------------------------------------------------|
Bb|---------------------------------------------------------------8-|
Gb|---------------------------------------5-----5-5-------7-----7---|
Db|-----5p0-x-3p0-x-2p0-x-----x-3p0-------3-----3-3-------5---------|
Ab|---------------------x-3p0-x-----3-3-3-3-----3-3-5-5-5-5---------|
Db|-0-0-----------------------------3-3-3-3-----3-3-5-5-5-5---------|
gtr2
   PM..|                           PM....|         PM....|
eb|-----------------------------------------------------------------|
Bb|-----------------------------------------------------------------|
Gb|---------------------------------------5-----5-5-------7---7-----|
Db|-----5p0-x-3p0-x-2p0-x-----x-3p0-------3-----3-3-------5---5-----|
Ab|---------------------x-3p0-x-----3-3-3-3-----3-3-5-5-5-5---5-----|
Db|-0-0-----------------------------3-3-3-3-----3-3-5-5-5-5---5-----|


gtr1    
eb|-----------------------------------------------------------------|
Bb|-----------------------------------------------------------------|
Gb|-----------------------------------------------------------------|
Db|-----------------------------------------------------------------|
Ab|--------------------------------------------------------/15\\----|
Db|-------------------------------------------------------//15\\\---|
gtr2(clean)
eb|-----------------------------------------------------------------|
Bb|-----------------------------13----------------------------------|
Gb|-----------------------------------------------1212--------------|
Db|-----14--15--14------14--15------15--1515--15151212--------------|
Ab|-15--------------15--------------15--1515--15151010-----/12\\----|
Db|---------------------------------15--1515--1515---------/12\\\---|



2nd chorus
gtr1(dist)
eb|-----------------------------------------------------------------|
Bb|-3-----3-3-3-3---3-3-3-3-3-3-3-3---------------------------------|
Gb|-2-----2-2-2-2---2-2-2-2-2-2-2-2-5-----5-5---5-5-5-5-5---5-5-5-5-|
Db|-0-----0-0-0-0---0-0-0-0-0-0-0-0-5-----5-5---5-5-5-5-5---5-5-5-5-|
Ab|-0-----0-0-0-0---0-0-0-0-0-0-0-0-3-----3-3---3-3-3-3-3---3-3-3-3-|
Db|-0-----0-0-0-0---0-0-0-0-0-0-0-0---------------------------------|
gtr2(dist)
eb|-----------------------------8-----------------------------------|
Bb|-------------------------6-------8-----8-8---8-8-8-8-8---8-8-8-8-|
Gb|-7-----7-7-7-7---7-7-7-7---------7-----7-7---7-7-7-7-7---7-7-7-7-|
Db|-7-----7-7-7-7---7-7-7-7---------5-----5-5---5-5-5-5-5---5-5-5-5-|
Ab|-5-----5-5-5-5---5-5-5-5---------5-----5-5---5-5-5-5-5---5-5-5-5-|
Db|-0-----0-0-0-0---0-0-0-0---------5-----5-5---5-5-5-5-5---5-5-5-5-|


gtr1
eb|-----------------------------------------------------------------|
Bb|-6---6-6-6---6-6-6-6-6---6-6-6-6-8-----8-8-8---8-8-8-------------|
Gb|-5---5-5-5---5-5-5-5-5---5-5-5-5-7-----7-7-7---7-7-7-7-7-----5h7-|
Db|-3---3-3-3---3-3-3-3-3---3-3-3-3-5-----5-5-5---5-5-5-5-5-5h7-----|
Ab|-3---3-3-3---3-3-3-3-3---3-3-3-3-5-----5-5-5---5-5-5-5-5---------|
Db|-3---3-3-3---3-3-3-3-3---3-3-3-3-5-----5-5-5---5-5-5-5-5---------|
gtr2
eb|-----------------------------------------------------------------|
Bb|-----------------------------13--15----151515--1515151515--------|
Gb|---------------------------------12----121212--1212121212--------|
Db|-----14--15~~~~------14--15------12----121212--1212121212--------|
Ab|-15-------------/15--------------10----101010--1010101010--------|
Db|-----------------------------------------------------------------|


gtr1
eb|-----------------------------------------------------------------|
Bb|-3-----3-3-3-3---3-3-3-3-3-3-3-3---------------------------------|
Gb|-2-----2-2-2-2---2-2-2-2-2-2-2-2-5-----5-5---5-5-5-5-5---5-5-5-5-|
Db|-0-----0-0-0-0---0-0-0-0-0-0-0-0-5-----5-5---5-5-5-5-5---5-5-5-5-|
Ab|-0-----0-0-0-0---0-0-0-0-0-0-0-0-3-----3-3---3-3-3-3-3---3-3-3-3-|
Db|-0-----0-0-0-0---0-0-0-0-0-0-0-0---------------------------------|
gtr2
eb|-----------------------------8-----------------------------------|
Bb|-------------------------6-------8-----8-8---8-8-8-8-8---8-8-8-8-|
Gb|-7-----7-7-7-7---7-7-7-7---------7-----7-7---7-7-7-7-7---7-7-7-7-|
Db|-7-----7-7-7-7---7-7-7-7---------5-----5-5---5-5-5-5-5---5-5-5-5-|
Ab|-5-----5-5-5-5---5-5-5-5---------5-----5-5---5-5-5-5-5---5-5-5-5-|
Db|-0-----0-0-0-0---0-0-0-0---------5-----5-5---5-5-5-5-5---5-5-5-5-|


gtr1
eb|-----------------------------------------------------------------|
Bb|-6---6-6-6---6-6-6-6-6---6-6-6-6-8-----8-8-8---8-8-8-8-----------|
Gb|-5---5-5-5---5-5-5-5-5---5-5-5-5-7-----7-7-7---7-7-7-7-----------|
Db|-3---3-3-3---3-3-3-3-3---3-3-3-3-5-----5-5-5---5-5-5-5--/14\\\\--|
Ab|-3---3-3-3---3-3-3-3-3---3-3-3-3-5-----5-5-5---5-5-5-5--/14\\\\\\|
Db|-3---3-3-3---3-3-3-3-3---3-3-3-3-5-----5-5-5---5-5-5-5-----------|
gtr2
eb|-----------------------------------------------------------------|
Bb|-----------------------------13--15----151515--15151515----------|
Gb|---------------------------------12----121212--12121212----------|
Db|-----14--15~~~~------14--15------12----121212--12121212-/14\\\---|
Ab|-15-------------/15--------------10----101010--10101010-/14\\\\--|
Db|-----------------------------------------------------------------|


gtr1
eb|-----------------------------------------------------------------|
Bb|-3-----3-3-3-3---3-3-3-3-3-3-3-3---------------------------------|
Gb|-2-----2-2-2-2---2-2-2-2-2-2-2-2-5-----5-5---5-5-5-5-5---5-5-5-5-|
Db|-0-----0-0-0-0---0-0-0-0-0-0-0-0-5-----5-5---5-5-5-5-5---5-5-5-5-|
Ab|-0-----0-0-0-0---0-0-0-0-0-0-0-0-3-----3-3---3-3-3-3-3---3-3-3-3-|
Db|-0-----0-0-0-0---0-0-0-0-0-0-0-0---------------------------------|
gtr2
eb|-----------------------------8-----------------------------------|
Bb|-------------------------6-------8-----8-8---8-8-8-8-8---8-8-8-8-|
Gb|-7-----7-7-7-7---7-7-7-7---------7-----7-7---7-7-7-7-7---7-7-7-7-|
Db|-7-----7-7-7-7---7-7-7-7---------5-----5-5---5-5-5-5-5---5-5-5-5-|
Ab|-5-----5-5-5-5---5-5-5-5---------5-----5-5---5-5-5-5-5---5-5-5-5-|
Db|-0-----0-0-0-0---0-0-0-0---------5-----5-5---5-5-5-5-5---5-5-5-5-|


gtr1
eb|-----------------------------------------------------------------|
Bb|-6---6-6-6---6-6-6-6-6---6-6-6-6-8-----8-8-8---8-8-8-------------|
Gb|-5---5-5-5---5-5-5-5-5---5-5-5-5-7-----7-7-7---7-7-7-7-7-----5h7-|
Db|-3---3-3-3---3-3-3-3-3---3-3-3-3-5-----5-5-5---5-5-5-5-5-5h7-----|
Ab|-3---3-3-3---3-3-3-3-3---3-3-3-3-5-----5-5-5---5-5-5-5-5---------|
Db|-3---3-3-3---3-3-3-3-3---3-3-3-3-5-----5-5-5---5-5-5-5-5---------|
gtr2
eb|-----------------------------------------------------------------|
Bb|-----------------------------13--15----151515--1515151515--------|
Gb|---------------------------------12----121212--1212121212--------|
Db|-----14--15~~~~------14--15------12----121212--1212121212--------|
Ab|-1515-----------/1515------------10----101010--1010101010--------|
Db|-----------------------------------------------------------------|


gtr1
eb|-----------------------------------------------------------------|
Bb|-3-----3-3-3-3---3-3-3-3-3-3-3-3---------------------------------|
Gb|-2-----2-2-2-2---2-2-2-2-2-2-2-2-5-----5-5---5-5-5-5-5---5-5-5-5-|
Db|-0-----0-0-0-0---0-0-0-0-0-0-0-0-5-----5-5---5-5-5-5-5---5-5-5-5-|
Ab|-0-----0-0-0-0---0-0-0-0-0-0-0-0-3-----3-3---3-3-3-3-3---3-3-3-3-|
Db|-0-----0-0-0-0---0-0-0-0-0-0-0-0---------------------------------|
gtr2
eb|-----------------------------8-----------------------------------|
Bb|-------------------------6-------8-----8-8---8-8-8-8-8---8-8-8-8-|
Gb|-7-----7-7-7-7---7-7-7-7---------7-----7-7---7-7-7-7-7---7-7-7-7-|
Db|-7-----7-7-7-7---7-7-7-7---------5-----5-5---5-5-5-5-5---5-5-5-5-|
Ab|-5-----5-5-5-5---5-5-5-5---------5-----5-5---5-5-5-5-5---5-5-5-5-|
Db|-0-----0-0-0-0---0-0-0-0---------5-----5-5---5-5-5-5-5---5-5-5-5-|


gtr1
eb|-----------------------------------------------------------------|
Bb|-6---6-6-6---6-6-6-6-6---6-6-6-6-8-----8-8-8-----8-8-8-8-8-8-8-8-|
Gb|-5---5-5-5---5-5-5-5-5---5-5-5-5-7-----7-7-7-----7-7-7-7-7-7-7-7-|
Db|-3---3-3-3---3-3-3-3-3---3-3-3-3-5-----5-5-5-----5-5-5-5-5-5-5-5-|
Ab|-3---3-3-3---3-3-3-3-3---3-3-3-3-5-----5-5-5-----5-5-5-5-5-5-5-5-|
Db|-3---3-3-3---3-3-3-3-3---3-3-3-3-5-----5-5-5-----5-5-5-5-5-5-5-5-|
gtr2
eb|-----------------------------------------------------------------|
Bb|-----------------------------13--15----151515----1515151515151515|
Gb|---------------------------------12----121212----1212121212121212|
Db|-----14--15~~~~------14--15------12----121212----1212121212121212|
Ab|-1515-----------/1515------------10----101010----1010101010101010|
Db|-----------------------------------------------------------------|


gtr1
   PM....|
eb|---------------------------------|
Bb|---------------------------------|
Gb|---------------------------------|
Db|-0---0---------------------------|
Ab|-0---0---------------------------|
Db|-0---0-----------------//15\\\\\-|
gtr2
   PM....|
eb|---------------------------------|
Bb|---------------------------------|
Gb|---------------------------------|
Db|-0---0---------------------------|
Ab|-0---0---------------------------|
Db|-0---0-----------------//15\\\\\-|


solo
gtr1
   PM..|       PM..|       PM..|       PM..|       PM..|
eb|-----------------------------------------------------------------|
Bb|-----------------------------------------------------------------|
Gb|-----------------------------------------------------------------|
Db|-----5-5-7-------10108-------8-8-7-------7-7-5-------5---7~~~~~~-|
Ab|-----------------------------------------------------------------|
Db|-0-0---------0-0---------0-0---------0-0---------0-0-------------|
gtr2
   PM..|       PM..|       PM..|       PM..|       PM..|
eb|-----------------------------------------------------------------|
Bb|-----------------------------------------------------------------|
Gb|-----------------------------------------------------------------|
Db|-----------------------------5-5---------------------------------|
Ab|-----7-7-8-------121210----------8-------8-8-7-------3---5~~~~~~-|
Db|-0-0---------0-0---------0-0---------0-0---------0-0-------------|


gtr1
   PM..|       PM..|       PM..|       PM..|
eb|-----------------------------------------------------------------|
Bb|-----------------------------------------------------------------|
Gb|-----------------------------------------------10-9-7-10-9-7-1210|
Db|-----5-5-7-------10108-------8-8-7-------7-7-5-------------------|
Ab|-----------------------------------------------------------------|
Db|-0-0---------0-0---------0-0---------0-0-------------------------|
gtr2
   PM..|       PM..|       PM..|       PM..|
eb|-----------------------------------------------------------------|
Bb|-----------------------------------------------------------------|
Gb|------------------------------------------------5-3-2--5-3-2-7-5-|
Db|-----------------7-7-5-------5-5---------------------------------|
Ab|-----7-7-8-----------------------8-------8-8-7-------------------|
Db|-0-0---------0-0---------0-0---------0-0-------------------------|


gtr1
   PM..|       PM..|       PM..|       PM..|       PM..|
eb|-----------------------------------------------------------------|
Bb|-----------------------------------------------------------------|
Gb|-----------------------------------------------------------------|
Db|-----5-5-7-------10108-------8-8-7-------7-7-5-------5---7~~~~~~-|
Ab|-----------------------------------------------------------------|
Db|-0-0---------0-0---------0-0---------0-0---------0-0-------------|
gtr2
   PM..|       PM..|       PM..|       PM..|       PM..|
eb|-----------------------------------------------------------------|
Bb|-----------------------------------------------------------------|
Gb|-----------------------------------------------------------------|
Db|-----------------7-7-5-------5-5---------------------------------|
Ab|-----7-7-8-----------------------8-------8-8-7-------3---5~~~~~~-|
Db|-0-0---------0-0---------0-0---------0-0---------0-0-------------|


gtr1
eb|-----------------------------------------------------------------|
Bb|-----------------------------------------------------------------|
Gb|55555555555555555555555555555555577777777777777779999999999999999|
Db|33333333333333333333333333333333355555555555555557777777777777777|
Ab|33333333333333333333333333333333355555555555555557777777777777777|
Db|33333333333333333333333333333333355555555555555557777777777777777|
gtr2
eb|-----------------------------------------------------------------|
Bb|-----------------------------------------------------------------|
Gb|---------------------------------7-7-101012--1212121212121212/14-|
Db|-------------------------7--7-10---------------------------------|
Ab|-7---7-7-8---8-8-10--1010----------------------------------------|
Db|-----------------------------------------------------------------|



    You   can   make    me       SCREEEEAAAAAAAMMMMMMMM!!!!!!!
gtr1
eb|-----------------------------------------------------------------|
Bb|-----------------------------------------------------------------|
Gb|---------------------------------5-----5---5-5-5-5-----5---5-5-5-|
Db|---------------------------------5-----5---5-5-5-5-----5---5-5-5-|
Ab|---------------------------------3-----3---3-3-3-3-----3---3-3-3-|
Db|-----------------------------------------------------------------|
gtr2
eb|-----------------------------------------------------------------|
Bb|-----------------------------13--8-----8---8-8-8-8-----8---8-8-8-|
Gb|---------------------------------7-----7---7-7-7-7-----7---7-7-7-|
Db|-15--14------14--12--14--15------5-----5---5-5-5-5-----5---5-5-5-|
Ab|---------15----------------------5-----5---5-5-5-5-----5---5-5-5-|
Db|---------------------------------5-----5---5-5-5-5-----5---5-5-5-|

gtr1
eb|-----------------------------------------------------------------|
Bb|-6-----6---6-6-6-6-----6---6-6-6-8---8-8---8-8-8-8---------------|
Gb|-5-----5---5-5-5-5-----5---5-5-5-7---7-7---7-7-7-7---------------|
Db|-3-----3---3-3-3-3-----3---3-3-3-5---5-5---5-5-5-5-------15\\\\--|
Ab|-3-----3---3-3-3-3-----3---3-3-3-5---5-5---5-5-5-5-------15\\\\--|
Db|-3-----3---3-3-3-3-----3---3-3-3-5---5-5---5-5-5-5---------------|
gtr2
eb|-----------------------------------------------------------------|
Bb|-----------------------------13--15--1515--15151515--------------|
Gb|---------------------------------12--1212--12121212--------------|
Db|-----14--15~~~~~~~~---14-15------12--1212--12121212------12\\\\--|
Ab|/15--------------/15-------------10--1010--10101010------12\\\\--|
Db|-----------------------------------------------------------------|


gtr1
eb|-------------------------------------------------3---------------|
Bb|--------------------3----------------------------3-------3-3-3-3-|
Gb|-------------------2-------------5-----5---5-5-5-5-------5-5-5-5-|
Db|------------------0--------------5-----5---5-5-5-5-------5-5-5-5-|
Ab|-----------------0---------------3-----3---3-3-3---------3-3-3-3-|
Db|-0-------------------------------3-------------------------------|
gtr2
eb|-------------------------------------------------3---------------|
Bb|-------------------------------------------------6---------------|
Gb|-----------------7-------7-7-7-7-5-----5---5-5-5-5-------5-5-5-5-|
Db|-7---------------7-------7-7-7-7-3-----3---3-3-3-3-------3-3-3-3-|
Ab|-5---------------5-------5-5-5-5-3-----3---3-3-3-3-------3-3-3-3-|
Db|-0-------------------------------3-----3---3-3-3-3-------3-3-3-3-|


gtr1
eb|-----------------------------------------------------------------|
Bb|-6---6-6---6-6-6-6-----------6-6-8---8-8---8-8---8-8-8-8---------|
Gb|-5---5-5---5-5-5-5-----------5-5-7---7-7---7-7---7-7-7-7-----5h7-|
Db|-3---3-3---3-3-3-3-----------3-3-5---5-5---5-5---5-5-5-5-5h7-----|
Ab|-3---3-3---3-3-3-3-----------3-3-5---5-5---5-5---5-5-5-5---------|
Db|-3---3-3---3-3-3-3-----------3-3-5---5-5---5-5---5-5-5-5---------|
gtr2
eb|-----------------------------------------------------------------|
Bb|-13----13--13131313----------131315--1515--1515--15151515--------|
Gb|-10----10--10101010----------101012--1212--1212--12121212--------|
Db|-10----10--10101010----------101012--1212--1212--12121212--------|
Ab|-8-----8---8-8-8-8-----------8-8-10--1010--1010--10101010--------|
Db|-----------------------------------------------------------------|


3rd Chorus
gtr1(dist)
eb|-----------------------------------------------------------------|
Bb|-3-----3-3-3-3---3-3-3-3-3-3-3-3---------------------------------|
Gb|-2-----2-2-2-2---2-2-2-2-2-2-2-2-5-----5-5---5-5-5-5-5---5-5-5-5-|
Db|-0-----0-0-0-0---0-0-0-0-0-0-0-0-5-----5-5---5-5-5-5-5---5-5-5-5-|
Ab|-0-----0-0-0-0---0-0-0-0-0-0-0-0-3-----3-3---3-3-3-3-3---3-3-3-3-|
Db|-0-----0-0-0-0---0-0-0-0-0-0-0-0---------------------------------|
gtr2(dist)
eb|-----------------------------8-----------------------------------|
Bb|-------------------------6-------8-----8-8---8-8-8-8-8---8-8-8-8-|
Gb|-7-----7-7-7-7---7-7-7-7---------7-----7-7---7-7-7-7-7---7-7-7-7-|
Db|-7-----7-7-7-7---7-7-7-7---------5-----5-5---5-5-5-5-5---5-5-5-5-|
Ab|-5-----5-5-5-5---5-5-5-5---------5-----5-5---5-5-5-5-5---5-5-5-5-|
Db|-0-----0-0-0-0---0-0-0-0---------5-----5-5---5-5-5-5-5---5-5-5-5-|


gtr1
eb|-----------------------------------------------------------------|
Bb|-6---6-6-6---6-6-6-6-6---6-6-6-6-8-----8-8-8---8-8b10b8p6-8p6----|
Gb|-5---5-5-5---5-5-5-5-5---5-5-5-5-7-----7-7-7---7--------------7--|
Db|-3---3-3-3---3-3-3-3-3---3-3-3-3-5-----5-5-5---5-----------------|
Ab|-3---3-3-3---3-3-3-3-3---3-3-3-3-5-----5-5-5---5-----------------|
Db|-3---3-3-3---3-3-3-3-3---3-3-3-3-5-----5-5-5---5-----------------|
gtr2
eb|-----------------------------------------------------------------|
Bb|-----------------------------13-(15)---151515--1515151515----1515|
Gb|---------------------------------12----121212--1212121212----1212|
Db|-----14--15~~~~------14--15------12----121212--1212121212----1212|
Ab|-15-------------/15--------------10----101010--1010101010----1010|
Db|-----------------------------------------------------------------|


gtr1
eb|-----------------------------------------------------------------|
Bb|-3-----3-3-3-3---3-3-3-3-3-3-3-3---------------------------------|
Gb|-2-----2-2-2-2---2-2-2-2-2-2-2-2-5-----5-5---5-5-5-5-5---5-5-5-5-|
Db|-0-----0-0-0-0---0-0-0-0-0-0-0-0-5-----5-5---5-5-5-5-5---5-5-5-5-|
Ab|-0-----0-0-0-0---0-0-0-0-0-0-0-0-3-----3-3---3-3-3-3-3---3-3-3-3-|
Db|-0-----0-0-0-0---0-0-0-0-0-0-0-0---------------------------------|
gtr2
eb|-----------------------------8-----------------------------------|
Bb|-------------------------6-------8-----8-8---8-8-8-8-8---8-8-8-8-|
Gb|-7-----7-7-7-7---7-7-7-7---------7-----7-7---7-7-7-7-7---7-7-7-7-|
Db|-7-----7-7-7-7---7-7-7-7---------5-----5-5---5-5-5-5-5---5-5-5-5-|
Ab|-5-----5-5-5-5---5-5-5-5---------5-----5-5---5-5-5-5-5---5-5-5-5-|
Db|-0-----0-0-0-0---0-0-0-0---------5-----5-5---5-5-5-5-5---5-5-5-5-|


gtr1
eb|-----------------------------------------------------------------|
Bb|-6---6-6-6---6-6-6-6-6---6-6-6-6-8-8-8-8-8-8-8-8-8-8-8-8---------|
Gb|-5---5-5-5---5-5-5-5-5---5-5-5-5-7-7-7-7-7-7-7-7-7-7-7-7---------|
Db|-3---3-3-3---3-3-3-3-3---3-3-3-3-5-5-5-5-5-5-5-5-5-5-5-5-/14\\\\-|
Ab|-3---3-3-3---3-3-3-3-3---3-3-3-3-5-5-5-5-5-5-5-5-5-5-5-5-/14\\\\\|
Db|-3---3-3-3---3-3-3-3-3---3-3-3-3-5-5-5-5-5-5-5-5-5-5-5-5---------|
gtr2
eb|-----------------------------------------------------------------|
Bb|-----------------------------13--151515151515151515151515--------|
Gb|---------------------------------121212121212121212121212--------|
Db|-----14--15~~~~------14--15------121212121212121212121212/14\\\--|
Ab|-15-------------/15--------------101010101010101010101010/14\\\\-|
Db|-----------------------------------------------------------------|


Outro
gtr1
   PM..|                            PM.|   PM       PM.|   PM
eb|-----------------------------------------------------------------|
Bb|-----------------------------------------------------------------|
Gb|-------------------------------------5-----5---------5-----5---x-|
Db|-------------------------------------3-----3---------5-----5---x-|
Ab|-0-0-7h8---7h8---7h8---7h8---7h8-3-3-3---3-3-----3-3-3---3-3---x-|
Db|-0-0-----0-----0-----0-----0-----3-3-3---3-3-----5-5-5---5-5---x-|
gtr2
   PM..|                            PM.|   PM       PM.|   PM
eb|-----------------------------------------------------------------|
Bb|-----------------------------------------------------------------|
Gb|-------------------------------------5-----5---------7-----7---x-|
Db|-------------------------------------3-----3---------5-----5---x-|
Ab|-0-0-1012--1012--1012--1012--10123-3-3---3-3-----5-5-5---5-5---x-|
Db|-0-0-----0-----0-----0-----0-----3-3-3---3-3-----5-5-5---5-5---x-|

gtr1
   PM..|                            PM.|   PM       PM.|   PM
eb|-----------------------------------------------------------------|
Bb|-----------------------------------------------------------------|
Gb|-------------------------------------5-----5---------5-----5---x-|
Db|-------------------------------------3-----3---------5-----5---x-|
Ab|-0-0-7h8---7h8---7h8---7h8---7h8-3-3-3---3-3-----3-3-3---3-3---x-|
Db|-0-0-----0-----0-----0-----0-----3-3-3---3-3-----5-5-5---5-5---x-|
gtr2
   PM..|                            PM.|   PM       PM.|   PM
eb|-----------------------------------------------------------------|
Bb|-----------------------------------------------------------------|
Gb|-------------------------------------5-----5---------7-----7---x-|
Db|-------------------------------------3-----3---------5-----5---x-|
Ab|-0-0-1012--1012--1012--1012--10123-3-3---3-3-----5-5-5---5-5---x-|
Db|-0-0-----0-----0-----0-----0-----3-3-3---3-3-----5-5-5---5-5---x-|

gtr1
   PM..|                            PM.|   PM       PM.|   PM
eb|-----------------------------------------------------------------|
Bb|-----------------------------------------------------------------|
Gb|-------------------------------------5-----5---------5-----5---x-|
Db|-----5h7---5h7---5h7---5h7---5h7-----3-----3---------5-----5---x-|
Ab|-0-0-----------------------------3-3-3---3-3-----3-3-3---3-3---x-|
Db|-0-0-----0-----0-----0-----0-----3-3-3---3-3-----5-5-5---5-5---x-|
gtr2
   PM..|                            PM.|   PM       PM.|   PM
eb|-----------------------------------------------------------------|
Bb|-----------------------------------------------------------------|
Gb|-------------------------------------5-----5---------7-----7---x-|
Db|-----1415--1415--1415--1415--1415----3-----3---------5-----5---x-|
Ab|-0-0-----------------------------3-3-3---3-3-----5-5-5---5-5---x-|
Db|-0-0-----0-----0-----0-----0-----3-3-3---3-3-----5-5-5---5-5---x-|

gtr1
   PM..|                                                        
eb|---------------------------------1213131313/15151515/17171717/202020|
Bb|---------------------------------x---x-x-x----x-x-x----x-x-x----x---|
Gb|-----1214--1214--1214--1214--12149/10101010/12121212/14141414/171717|
Db|--------------------------------------------------------------------|
Ab|-0-0----------------------------------------------------------------|
Db|-0-0-----0-----0-----0-----0----------------------------------------|
gtr2
   PM..|
eb|--------------------------------------------------------------------|
Bb|---------------------------------1718181818/20202020/22222222/--x-x-|
Gb|---------------------------------x---x-x-x----x-x-x----x-x-x----x-x-|
Db|-----1415--1415--1415--1415--14151415151515/17171717/19191919/212121|
Ab|-0-0----------------------------------------------------------------|
Db|-0-0-----0-----0-----0-----0----------------------------------------|

gtr1
   PM....|
eb|---------------------------------|
Bb|---------------------------------|
Gb|---------------------------------|
Db|-0---0---------------------------|
Ab|-0---0---------------------------|
Db|-0---0---------------------------|
gtr2
   PM....|
eb|---------------------------------|
Bb|---------------------------------|
Gb|---------------------------------|
Db|-0---0---------------------------|
Ab|-0---0---------------------------|
Db|-0---0---------------------------|
Comments