Submersed - Flicker Chords & Tabs

 

Flicker Chords & Tabs

Submersed Chords & Tabs

Version: 1 Type: Tab 0 ratings
1 star 2 stars 3 stars 4 stars 5 stars
comments

Flicker Tab

This may not be totally correct (especially the upstrum chords and tuning might be wrong)
but I'm not going to kill myself over it since there's practically no tabs out for this 
band yet. The second section is the section where i think that the tuning is E A D F B E.
I think this way because of the pick chord at the end of the second line. If you listen 
closely you can hear each note ringing individualy.


e|---------1-1h3p1--------0--5---5-----7-----8-----10----------------|
b|-------1---------1----0----5-----5-----5-----5------5--------------|
G|-----2--------------1------5-------5-----5-----5------5------------|
D|---3--------------2-------(7)--------------------------------------|
A|-------------------------------------------------------------------|
e|-------------------------------------------------------------------|
                               

e|---------1-1h3p1---0-------0---------------------------------------|
b|-------1---------1---0--------1~~~---------------------------------|
G|-----2-----------------1------4~~~---------------------------------|
D|---3---------------------2----2~~~------2-3\2---2-3\2---2/3\2------|
A|------------------------------0~~~----0-------0-------0------------|
e|-------------------------------------------------------------------|
			     (upstrum)	

e|---------1-1h3p1----------0--5--5-----7-----8-----7h8p7------------|
b|-------1---------1------0----5----5-----5-----5---------5----------|
G|-----2----------------1------5------5-----5-----5---------5--------|
D|---3----------------2-------(7)------------------------------------|
A|-------------------------------------------------------------------|
e|-------------------------------------------------------------------|

[ Tab from: http://www.guitartabs.cc/tabs/s/submersed/flicker_tab.html ]
e|---------1-1h3p1---0-------0---------------------------------------|
b|-------1---------1---0---------------1~~~--------------------------|
G|-----2-----------------1-------------4~~~--------------------------|
D|---3---------------------2-----------2~~~--------------------------|
A|-------------------------------------0~~~--------------------------|
e|------------------------------------(1)----------------------------|
			           (upstrum)	

================================OR====================================

e|---------1-1h3p1--------0--5---5-----7-----8-----10----------------|
b|-------1---------1----0----5-----5-----5-----5------5--------------|
G|-----4--------------3------7-------7-----7-----7------7------------|
D|---3--------------2-------(7)--------------------------------------|
A|-------------------------------------------------------------------|
e|-------------------------------------------------------------------|
                               

e|---------1-1h3p1---0-------0---------------------------------------|
b|-------1---------1---0--------3~~~---------------------------------|
G|-----4-----------------3------0~~~--------0-------0-------0--------|
D|---3---------------------2----2~~~------2---2---2---2---2---2------|
A|------------------------------0~~~----0-------0-------0------------|
e|-------------------------------------------------------------------|
			     (upstrum)	

e|---------1-1h3p1----------0--5--5-----7-----8-----7h8p7------------|
b|-------1---------1------0----5----5-----5-----5---------5----------|
G|-----4----------------3------7------7-----7-----7---------7--------|
D|---3----------------2-------(7)------------------------------------|
A|-------------------------------------------------------------------|
e|-------------------------------------------------------------------|


e|---------1-1h3p1---0-------0---------------------------------------|
b|-------1---------1---0---------------3~~~--------------------------|
G|-----4-----------------3-------------0~~~--------------------------|
D|---3---------------------2-----------2~~~--------------------------|
A|-------------------------------------0~~~--------------------------|
e|------------------------------------(1)----------------------------|
			           (upstrum)
Comments