Submersed - Deny Me Chords & Tabs

 

Deny Me Chords & Tabs

Submersed Chords & Tabs

Version: 2 Type: Tab 0 ratings
1 star 2 stars 3 stars 4 stars 5 stars
comments

Deny Me Tab

Artist: Submersed
Song: Deny Me
Album: In Due time
Tabbed by: Jhenri

Stand

 Intro (slight distortion)
e |------------------------------------------------------------------|
b |------------------------------------2----3p2-----------------7----|
g |-------7--7--------7------------2----2------4----------7--7---7---|
d |-----------------9---9-----------------------------------------9--|
a |-7/9-9--9---9-9-----------2/4-4--4-----4---------7/9-9--9--9------|
e |------------------------------------------------------------------|

e |-------------------------------------------7*-|
b |-------------------------------------------7*-|
g |---------------7---------------------------7*-|end of intro
d |-------9--9p7---7--------9--9p7---------------|
a |-------------9------------------9-9p7---------|
e |-5/7-7--7----------5/7-7--7----------9-7------|

Verse (clean)
e |-----------------------7*---------------------------------7*--|
b |-----------------------7*---------------------------------7*--|play 2x's
g |---7--7-7--------------7*--7--7-7-------------------------7*--|
d |---7--7-7---9-9-9-9--------7--7-7---9--9-9-9p7----------------|
a |---5--5-5---9-9-9--9-------5--5-5---9--9-9-----9-9p7----------|
e |------------7-7-7---7---------------7--7-7-----------9-7------|


Prechorus (distortion)
e |-------------| strumming not shown
b |-------------|
g |--7--4-------|
d |--7--4--4----|
a |--5--2--4----|
e |--------2----|

Chorus (distortion)
e |---------------------------------------7*-| strumming not shown
b |---------------------------------------7*-|
g |-7--------------4/6/7--7---------------7*-|
d |-7--4--5--7--9---------7--4--5--7--9------|
a |-5--4--5--7--9--2/4/5--5--4--5--7--9------|
e |----2--3--5--7------------2--3--5--7------|

Verse 2x's
[ Tab from: http://www.guitartabs.cc/tabs/s/submersed/deny_me_tab_ver_2.html ]
Solo build up
e |-----------------------------------------|
b |-----------------------------------------|
g |--------------------2/4-4/6-6/7-7/9-9~---|
d |-2/4-4/6-6/7-7/9-9~----------------------|
a |-----------------------------------------|
e |-----------------------------------------|

Solo
e |-------------------------------------------------------------|
b |-------------9----------------9------------------------------|
g |--9b-9---7~--9b-9-9b~----7-9b---9b-9b11r9-7-9b--9-9b11r9-7---|
d |-------9---------------/9------------------------------------|
a |-------------------------------------------------------------|
e |-------------------------------------------------------------|

e |---------------10-9-5------------10-9-5-----------10x-9x-5x-------------|
b |---------9-10---------8b-5h7p5-3--------8b-5h7p5-3----------8bx-5h7p5-3-|
g |-9-11-12----------------------------------------------------------------|
d |------------------------------------------------------------------------|
a |------------------------------------------------------------------------|
e |------------------------------------------------------------------------|

e |-10p9p7--------8p6p5-------6p5p3-------5p3p2----------|
b |--------10p9p7-------8p6p5-------6p5p3-------5p3p2-3~-|
g |------------------------------------------------------|
d |------------------------------------------------------|
a |------------------------------------------------------|
e |------------------------------------------------------|

Chorus played 3 or 4 times with some variation and without the harmonics at the end.

Outro
e |----------------------------|
b |-7b-------------------------|
g |----10p9p7---------------7~-|
d |-----------10p9p7-----------|
a |------------------10p9p7----|
e |----------------------------|
Comments