Submersed - Deny Me Chords & Tabs

 

Deny Me Chords & Tabs

Submersed Chords & Tabs

Version: 1 Type: Tab 0 ratings
1 star 2 stars 3 stars 4 stars 5 stars
comments

Deny Me Tab

Flat

[ Tab from: http://www.guitartabs.cc/tabs/s/submersed/deny_me_tab.html ]
 
e|------------------------------------------------------------------------|
b|--------------------------------------3---4p3--------------------8------|
g|-----------8----8-------8---------3----3-----5--------8----8------8-----|
d|---------------------10---10---------------------------------------10---|
a|---8/10-10---10---10------------3/5-5----5--------8/10---10---10--------|
e|------------------------------------------------------------------------|

e|------------------------------------------------------------------------|
b|------------------------------------------------------------------------|
g|------------------------------------------------------------------------|
d|----8-10----10p8----12-8-----8-10----10p8-------------------------------|
a|-10------10------10-------10------10------10-10p8-----------------------|
e|--------------------------------------------------10-8------------------|
Comments