Submerged - Cut Thru Chords & Tabs

 

Cut Thru Chords & Tabs

Submerged Chords & Tabs

Version: 2 Type: Tab 0 ratings
1 star 2 stars 3 stars 4 stars 5 stars
comments

Cut Thru Tab

=By:Nick & Andy
=Arist: Submerged
=Song: Cut+-Thru

**This is a NEW band called: Submerged. It's the bands first song and
you should learn to play it**

^=strum up
*=strum down

-Intro/Verse-
[ Tab from: http://www.guitartabs.cc/tabs/s/submerged/cut_thru_tab_ver_2.html ]
-------1--------1--------1--------1----------0--------0------0------0---|
-------0--------0--------0--------0----------0--------0------0------0---|
------------------------------------------------------------------------|
----2-2------2-2------2-2------2-2--------1-1------1-1----1-1---1-1-----|
----2-2------2-2------2-2------2-2--------0-0------0-0----0-0---0-0-----|
----0-0------0-0------0-0------0-0--------0-0------0-0----0-0---0-0-----|
    * * ^    * * ^    * * ^    * * ^      * * ^    * * ^  * * ^ * * ^

-Chorus-
*distorted*

----------------------------------------------------------------------|
----------------------------------------------------------------------|
----------------------------------------------------------------------|
-2-2-2-2--------------------------------------------------------------|
-2-2-2-2-----4-4-4----7-7-7-7-7---------------------------------------|
-0-0-0-0-----2-2-2----5-5-5-5-5---------------------------------------|
Comments