Sublime - Wrong Way Chords & Tabs

 

Wrong Way Chords & Tabs

Sublime Chords & Tabs

Version: 4 Type: Bass Tab 0 ratings
1 star 2 stars 3 stars 4 stars 5 stars
comments

Wrong Way Bass Tab

Song: Wrong Way
Artist: Sublime
Album: Sublime
Originally Tabbed by: Matthew Beatty(meb243@hotmail.com)
ReTabbed and Edited by: Ryan VanPatten(futrebartender5@netscape.net)

Intro (slow pace)"dont be afraid..." 

G|------------------------|
D|------------------------|
A|--------5----5--------5-|
E|-0----0--------0----0---|


("I gave her all...")
measure 1
G|-----------------|-----------------|
D|---------5-5-6-7-|---------3-3-4-5-|
A|-----7-7---------|-----5-5---------| x3
E|-5-5-------------|-3-3-------------|

(“Ruins up her makeup...")
measure 2
G|-----------------|--------------------|
D|---------5-5-6-7-|-----------8-8-9-10-|
A|-----7-7---------|-----10-10----------| x1
E|-5-5-------------|-8-8----------------|

(“A cigarette rests...")
measure 3
G|-------------------------------|-----------------------------|
D|-------11-11-----------8h9-----|-------11-11-----------9-9---|
A|-9---9-----------7---7---------|-9---9-----------7---7-------| x1
E|------------9-9------------7/9-|------------9-9------------7-|

G|-------------------------------|-----------------------------|
D|-------11-11-----------9-9-----|-------11-11-----------9-9---|
A|-9---9-----------7---7---------|-9---9-----------7---7-------| x1
E|------------9-9------------7-7-|-------------9-9-----------7-|

(“The only family she...")
measure 4
G|-----------------|-----------------|
D|---------7-7-8-9-|---------5-5-6-7-|
A|-----9-9---------|-----7-7---------| x3
E|-7-7-------------|-5-5-------------|

(“Everything was going fine"...)
measure 5
G|-----------------|-------------------------|
D|---------7-7-8-9-|-------------10-10-11-12-| 
A|-----9-9---------|-------12-12-------------| x1
E|-7-7-------------|-10-10-------------------|

(“Happy are you sad...")
measure 6
G|-------------------------|------------------------|
D|-------9-9---------7-7---|------8h9---------7-7---|
A|-7---7-------5---5-------|-7---7------5---5-------| x1
E|-----------7-----------5-|----------7-----------5-|


[ Tab from: http://www.guitartabs.cc/tabs/s/sublime/wrong_way_btab_ver_4.html ]
G|-------------------------|-------------------------|
D|-------9-9---------7-7---|-------9-9---------7-7---|
A|-7---7-------5---5-------|-7---7-------5---5-------| x1
E|-----------7-----------5-|-----------7-----------0-|

(“Don’t Run Away...) 
measure 1 
G|-----------------|-----------------|
D|---------5-5-6-7-|---------3-3-4-5-|
A|-----7-7---------|-----5-5---------| x3
E|-5-5-------------|-3-3-------------|

measure 2
G|-----------------|--------------------|
D|---------5-5-6-7-|-----------8-8-9-10-|
A|-----7-7---------|-----10-10----------| x1
E|-5-5-------------|-8-8----------------|

("Ha, dub stop.")
Trumpet Solo
G|---------------------------------|----------------------------|
D|------10h11--10h11------7h9--7h9-|------9h10--9h10------9-9---|
A|-9--9--------------7--7----------|-9--9------------7--7-------| x1
E|---------------------------------|--------------------------7-|

G|-------------------------------|----------------11---13---14---13-|
D|------9h10--9h10------7h9--7h9-|------11-11-11--------------------| 
A|-9--9------------7--7----------|-9--9----------9---11---12---11---|x1
E|-------------------------------|----------------------------------|

("she'll give you all...")
measure 4
G|-----------------|-----------------|
D|---------7-7-8-9-|---------5-5-6-7-|
A|-----9-9---------|-----7-7---------| x3
E|-7-7-------------|-5-5-------------|

("Smears up her makeup...")
measure 5
G|-----------------|-------------------------|
D|---------7-7-8-9-|-------------10-10-11-12-| 
A|-----9-9---------|-------12-12-------------| x1
E|-7-7-------------|-10-10-------------------|

("So she ran away...")
measure 6
G|-------------------------|------------------------|
D|-------9-9---------7-7---|------8h9---------7-7---|
A|-7---7-------5---5-------|-7---7------5---5-------| x1
E|-----------7-----------5-|----------7-----------5-|

G|-------------------------|-------------------------|
D|-------9-9---------7-7---|-------9-9---------7-7---|
A|-7---7-------5---5-------|-7---7-------5---5-------| x1
E|-----------7-----------5-|-----------7-----------0-|

measure 4 ("I gave her all...")
G|-----------------|-----------------|
D|---------7-7-8-9-|---------5-5-6-7-|
A|-----9-9---------|-----7-7---------| x3
E|-7-7-------------|-5-5-------------|

Ending (time 2.11)

G|------------------------------|
D|---------7-7-8-9--------------|
A|-----9-9----------------------|
E|-7-7--------------10-0-10--10-|
Comments