Sublime - What I Got Chords & Tabs

 

What I Got Chords & Tabs

Sublime Chords & Tabs

Version: 6 Type: Tab 2 ratings
1 star 2 stars 3 stars 4 stars 5 stars
comments

What I Got Tab

Most of this song and the intro goes like this:

e-----------------------------------------------------------
b-----------3-------------------------------3---------------
g-------2---------2--------------------------------0--------
d--0---------------------0-----------0-------------------0--
a------------------------------3----------------------------
e-----------------------------------------------------------


The solo on all the other tabs out there are way off.
Try this:
[ Tab from: http://www.guitartabs.cc/tabs/s/sublime/what_i_got_tab_ver_6.html ]
e--------------------------------------------------------------------
b-----------------------6---------------------7------5-------5-----3-
g----------5------7-------------7h5----7------7------5-------5-----4-
d---7----------------------------------------------------------------
a--------------------------------------------------------------------
e--------------------------------------------------------------------

e--------------------10----------------------------------------------
b-----------10h12-----------12p10-----10-----12-----10-----b11-------
g---11h12------------------------------------------------------------
d--------------------------------------------------------------------
a--------------------------------------------------------------------
e--------------------------------------------------------------------

Thank You Very Much
Comments