Sublime - What I Got Chords & Tabs

 

What I Got Chords & Tabs

Sublime Chords & Tabs

Version: 4 Type: Tab 10 ratings
1 star 2 stars 3 stars 4 stars 5 stars
comments

What I Got Tab

   
SUBLIME KICKS ASS!!!!



INTRO
VERSE    D5       G5
e|--------------------------------------------------------|
B|-------3--------3---------------------------------------|
G|-----2---2----0---0-------------------------------------|
D|---0----------------------------------------------------|
A|--------------------------------------------------------|
E|------------3-------------------------------------------|


CHORUS: D5   G5

SOLO
[ Tab from: http://www.guitartabs.cc/tabs/s/sublime/what_i_got_tab_ver_4.html ]
e|-------------------------------------------------------10------------------------|
B|----------6------------7--5--3-3----------------10h12-----12-12-10-13-12-10------|
G|------5-7---7-5-5h7----7--5--4-4---------11h12------------------------------12^--|
D|---/7----------------------------------------------------------------------------|
A|---------------------------------------------------------------------------------|
E|---------------------------------------------------------------------------------|


OUTRO SAME AS INTRO
Comments