Sublime - What I Got Chords & Tabs

 

What I Got Chords & Tabs

Sublime Chords & Tabs

Version: 15 Type: Tab 0 ratings
1 star 2 stars 3 stars 4 stars 5 stars
comments

What I Got Tab

   
Standard tuning    E B G D A E (low to high)

This tab is 100% correct

h=hammer on
~=vibrato
^bend and hold
p=pulloff

Intro/Verse
e--------------------------------------------------|
a-----3------3------3------2-----------------------|
d----2-2----0-0----2-2----0-0----------------------|
g--0--------------0--------------------------------|
b--------------------------------------------------|
E---------3-------------3--------------------------|


Solo
"i can play the guitar like a mother f*cking riot"
[ Tab from: http://www.guitartabs.cc/tabs/s/sublime/what_i_got_tab_ver_15.html ]
e----------------------------------
a---------6~---------7--5--3-3-----
d-----5-7----7-5-7~--7--5--4-4-----
g---7------------------------------
b----------------------------------
E----------------------------------
       
e-------------10------------------------|
a--------10h12--12-12p10-13-12-10-------|
d---11h12------------------------12^----|
g---------------------------------------|
b---------------------------------------|
E---------------------------------------|


Chorus (same as solo)
e----------------------------------
a---------6~---------7--5--3-3-----
d-----5-7----7-5-7~--7--5--4-4-----
g---7------------------------------
b----------------------------------
E----------------------------------
       
e-------------10------------------------|
a--------10h12--12-12p10-13-12-10-------|
d---11h12------------------------12^----|
g---------------------------------------|
b---------------------------------------|
E---------------------------------------|

Zac Jennings
Comments