Sublime - Were Only Gonna Die For Our Own Arrogance Chords & Tabs

 

Were Only Gonna Die For Our Own Arrogance Chords & Tabs

Sublime Chords & Tabs

Version: 1 Type: Tab 0 ratings
1 star 2 stars 3 stars 4 stars 5 stars
comments

Were Only Gonna Die For Our Own Arrogance Tab

   
SUBLIME

WE'RE ONLY GONNA DIE OR OUR OWN ARROGANCE

Tabbed by dave@mckechan.co.uk

Intro

E------------------------------------------------
B------------------------------------------------
G-----------------------------------------------7b
D--7-7-7-5--5-5-5-4--4-4-4-2--2-2-2---------------
A-----------------------------------5--5-5-5-4----
[ Tab from: http://www.guitartabs.cc/tabs/s/sublime/were_only_gonna_die_for_our_own_arrogance_tab.html ]
The next little solo part is quite easy I always play it differently 
each time and it is just quite a simple improvisation in the D major scale
so I wont bother to write it down but you should work it up 
2 something like this

E----17bfull-15h17p15----15-15\14------
B-17------------------17----------15p14-
G---------------------------------------14

Then it continues like this

G--14-14-14-12--12-12-12-11--11-11-11-9--9-9-9-7--7-7-7-6/7--

The above line also sounds good done with loads of distortion and 
tremolo picking if u like. which brings us nicely to the verse

Just a simple ska with distortion variations later on.........

|A G |D A |

and Bob's your uncle!
Comments