Sublime - Under My Voodoo Chords & Tabs

 

Under My Voodoo Chords & Tabs

Sublime Chords & Tabs

Version: 2 Type: Tab 1 rating
1 star 2 stars 3 stars 4 stars 5 stars
comments

Under My Voodoo Tab

#----------------------------------PLEASE NOTE--------------------------------#
#This file is the author's own work and represents their interpretation of the#
#song. You may only use this file for private study, scholarship, or research.#
#-----------------------------------------------------------------------------#
#-- File created with Instab - http://www.pconline.com/~smcarey/instab.html --#
#-----------------------------------------------------------------------------#

Author/Artist: sublime
Title: under my voodoo
Album: sensimilla cd sublime
Transcribed by: sebastian giancaspro
Email: ggianca@aol.com

i kinda f**ed up some parts but you'll be staisfied with it 
its more detailed than ever thought i'd make it

------------------------------------------------------------------------------
------------------------------------------------------------------------------
----9-11b^-9---------------------------------------------14-12----------------
-11----------11---9-7-9b^-7------------------------9-7---------14--14-12-14---
----------------------------9---9-7-7h9--9-7-7h9-9----------------------------
------------------------------------------------------------------------------
                                                                              

------------------------------------------------------------------------------
------------------------------------------------------------------12----------
-12--------------------------------------12-----------------12-14----14-12----
----14--12-14-14b^-12----12-14--12-14-12----14-12h14--12-14-------------------
----------------------14------------------------------------------------------
------------------------------------------------------------------------------
                                                                              

------------------------------------------------------------------------------
-----------------12--\-----------------------------------8-9*-**-*------------
----12-14-12--14-----\-------9---------2-------------7-9---9*-**-*--9-9-9-7---
-14--------------------7--9------2--4-----4h5--5-7/9-------9*-**-*------------
------------------------------------------------------------------------------
------------------------------------------------------------------------------
                                                                              
									
--------------------------------------------------||3-3-3-2-2-2-1-1-1---------
------------------8-----------------8-----8-8-8---||3-3-3-2-2-2-1-1-1---------
-9-7-9b^-7----7-9----9-9-9-7-9--7-9---7-9---------||4-4-4-3-3-3-2-2-2--9------
-----------9--------------------------------------||5-5-5-4-4-4-3-3-3--9------
--------------------------------------------------||5-5-5-4-4-4-3-3-3--7------
--------------------------------------------------||3-3-3-2-2-2-1-1-1---------
                                     Under my voodoo!		(bridge)                                         
[ Tab from: http://www.guitartabs.cc/tabs/s/sublime/under_my_voodoo_tab_ver_2.html ]
-3-3-3--5-5---|-|-------------------------------------------------------------
-3-3-3--5-5---|-|------------------------8------------------------------------
-4-4-4--6-6--9|-|-9-7---7-7b-------9-7-9----9-7h9--9-7-9-7-------7-9-7-9b^-7--
-5-5-5--7-7--9|-|-----9-----7-5----------------------------9-7-9--------------
-5-5-5--7-7--7|-|---------------7---------------------------------------------
-3-3-3--5-5---|-|-------------------------------------------------------------
                                                                              

------------------------------------------------------------------------------
-8---10-8---------------------------------------------------------------------
---9--------7-9b^-9-9--7-9-7-9/12----------------12-14b^-12-----12-12---------
----------------------------------14-12----12-14------------14--------14-14---
----------------------------------------14------------------------------------
------------------------------------------------------------------------------
                                                                              

------------------------------------------------------------------------------
---------------------------------------12-----------------------12------------
-12-12----------------12-14b--14-12-14----14-12----12-14-12-14b----14-12------
-------14-12----12-14---------------------------14-----------------14---------
-------------14---------------------------------------------------------------
------------------------------------------------------------------------------
                                                                              

----------|---|-|-|-|-|-|-|-|-----------|-15b-15b-12----12----12--------------
----------|---|-|-|-|-|-|-|-|-----------|------------15----15-----15-12-------
-14-12-14-|---|-|-|-|-|-|-|-|-----------|-------------------------------14-12-
----14----|---|-|-|-|-|-|-|-|-----------|-------------------------------------
----------|---|-|-|-|-|-|-|-|-----------|-------------------------------------
----------|---|-|-|-|-|-|-|-|-----------|-------------------------------------
            again (bridge)section  (take a look back at the chords)                                                                

------------------------------------------------------------------------------
------------------------------------------------------------------------------
----12-14-14b^12--12-12-14-12-14-12-12-14-14-12-12-------12-14-12-14-14-14----
-14---------------12-12-14-12-14-12-12-14-14-12-12-12-14----------14-14-14----
------------------------------------------------------------------------------
------------------------------------------------------------------------------
                                                                              

--------------------------------------15b-15b-15b-15b-12b-15b-12b-15b-15b-----
-12b-12-----------12b-12b-12--------------------------------------------------
--------11-9----9------------11-9-9-------------------------------------------
-------------11---------------------------------------------------------------
------------------------------------------------------------------------------
------------------------------------------------------------------------------
                                                                              

-15b-15b-|--||-|-|-|-----|--7-7-7-7-7-7-7-7-7---------------------------------
---------|--||-|-|-|-----|--8-8-8-8-8-8-8-8-8---------------------------------
---------|--||-|-|-|-----|--9-9-9-9-9-9-9-9-9---------------------------------
---------|--||-|-|-|-----|--9-9-9-9-9-9-9-9-9---------------------------------
---------|--||-|-|-|-----|----------------------------------------------------
---------|--||-|-|-|-----|----------------------------------------------------
		(bridge)  		(keep doing the reggea beat getting slower-fading)                                                                            

Comments