Sublime - Under My Voodoo Chords & Tabs

 

Under My Voodoo Chords & Tabs

Sublime Chords & Tabs

Version: 2 Type: Bass Tab 0 ratings
1 star 2 stars 3 stars 4 stars 5 stars
comments

Under My Voodoo Bass Tab

Song: Under My Voodoo
Band: Sublime
Album: Selt Titled
Tabbed by: Rob MacGuffie (SubDubLBC@aol.com)
Tuning: Standard
Visit My Sublime Bass Tab Site: http:\\subdublbc.tripod.com


 Main Verse: Play 32x
 |--------------|
 |-------5------|
 |-5h7-x----7-7-|
 |--------------|

 Then: Chorus
 |-------------------------------------|
 |--5-5-5-5-5-5-5-5--4-4-4-4--3-3-3-3--|
 |-------------------------------------|
 |-------------------------------------|
 
 Main Verse: Play 4x
 |--------------|
 |-------5------|
 |-5h7-x----7-7-|
 |--------------|
 
 Then
 |-------------------------------|
 |--5-5-5-5-5-5-5-5--7-7-7-7--9--|
 |-------------------------------|
 |-------------------------------|

[ Tab from: http://www.guitartabs.cc/tabs/s/sublime/under_my_voodoo_btab_ver_2.html ]
 Then
 
 Main Verse: Play 4x
 |--------------|
 |-------5------|
 |-5h7-x----7-7-|
 |--------------|
 
 Then: Chorus
 |-------------------------------------|
 |--5-5-5-5-5-5-5-5--4-4-4-4--3-3-3-3--|
 |-------------------------------------|
 |-------------------------------------|
 
 Main Verse: Play 4x
 |--------------|
 |-------5------|
 |-5h7-x----7-7-|
 |--------------|
 
 Then
 |-------------------------------|
 |--5-5-5-5-5-5-5-5--7-7-7-7--9--|
 |-------------------------------|
 |-------------------------------|


 Main Verse: Play 20x
 |--------------|
 |-------5------|
 |-5h7-x----7-7-|
 |--------------|

 Then: Chorus
 |-------------------------------------|
 |--5-5-5-5-5-5-5-5--4-4-4-4--3-3-3-3--|
 |-------------------------------------|
 |-------------------------------------|
 
 Main Verse: Play 4x
 |--------------|
 |-------5------|
 |-5h7-x----7-7-|
 |--------------|

 
 Then: This is the False Ending part.
 |-------------------------------------|
 |--5-5-5-5-5-5-5-5--7-7-7-7--9--------|
 |----------------------------------(7)|
 |-------------------------------------|

 
 Main Verse: Play 26x, progresively slow the tempo down.
 |--------------|
 |-------5------|
 |-5h7-x----7-7-|
 |--------------|
  
 After the 26th time of playing the verse, play this.
 |-----|
 |-----|
 |-(7)-|
 |-----|


 Key:
 ()= Let Ring   
 x=Mute
Comments