Sublime - Superstar Punani Chords & Tabs

 

Superstar Punani Chords & Tabs

Sublime Chords & Tabs

Version: 1 Type: Bass Tab 0 ratings
1 star 2 stars 3 stars 4 stars 5 stars
comments

Superstar Punani Bass Tab

   
SUPERSTAR PUNANI BY SUBLIME
TRANSCRIBED BY HOOCHIE MAMA
THIS IS A COOL SONG OFF SECOND HAND SMOKE AND IT'S PRETTY EASY. THE HARDEST
PART ABOUT IT IS MEMORIZING IT, BUT ONCE YOU GET THAT IT'S SWEET TO PLAY!IT
SOUNDS BETTER WHEN YOU PLAY IT WITH YOUR FINGER AND HAVE THE TONE PRETTY
LOW.
ENJOY!!!

STANDARD TUNNING (E,A,D,G)

VERSE
[ Tab from: http://www.guitartabs.cc/tabs/s/sublime/superstar_punani_btab.html ]
G|------------------------
D|--------88-7------------
A|5-7-8-5-----5-7-8-5-----
E|--------------------66-5

PRE-CHORUS

G|------------------------------------------------------------
D|55-555-555-555----------------55-555-555-555-7-7-7-7-7-7-7-7
A|---------------55-555-555-555-------------------------------
E|------------------------------------------------------------

CHORUS

G|-------------------------------       ----
D|--4-7-----2-5------------------       ----  
Comments