Sublime - Seed Chords & Tabs

 

Seed Chords & Tabs

Sublime Chords & Tabs

Version: 2 Type: Tab 0 ratings
1 star 2 stars 3 stars 4 stars 5 stars
comments

Seed Tab

Sorry that this isn;t actually my tab, but the one on UG was lacking, so we really need
this.  The boy who tabbed it didn't leave a name or e-mail to be contacted at.


Listen to song for rhythm


|-----|-----|-----|
|-----|-----|-----|
|-----|-----|-----|
|--7--|--3--|--5--|
|--7--|--3--|--5--|
|--5--|--1--|--3--|

|--8--8--5--5---|--1-----3------|
|--8--8--5--5---|--1-----3------|
|--9--9--6--6---|--2-----4------|
|-10-10--7--7---|--3-----5------| 2x
|---------------|---------------|
|---------------|---------------|
second time bend last chord with whammy bar

|-----|-----|-----|
|-----|-----|-----|
|-----|-----|-----|
|--7--|--3--|--5--|
|--7--|--3--|--5--|
|--5--|--1--|--3--|

|--8--8--5--5---|--1-----3------|
|--8--8--5--5---|--1-----3------|
|--9--9--6--6---|--2-----4------|
|-10-10--7--7---|--3-----5------|4x
|---------------|---------------|
|---------------|---------------|

|----------------|-----------------|
|----------------|-----------------|
|--5-----7-------|----------3------|
|--5--7--7--5----|--3-5-3-5-3-3--7-|
|--3--7--5--5----|--3-5-3-5-1-3--7-|
|-----5-----3----|--1-3-1-3---1--5-|

|----------8-10-|-10^10-10-8----|---------
|-10-10-10------|------------10-|8--------
|---------------|---------------|-10-10-10
|---------------|---------------|---------
|---------------|---------------|---------
|---------------|---------------|---------
[ Tab from: http://www.guitartabs.cc/tabs/s/sublime/seed_tab_ver_2.html ]
----8-10-|-b10-b101010-10-8-10|----12---| 
-10------|-------------------|-15^------|
---------|-------------------|----------|
---------|-------------------|-(10 times|
---------|-------------------|----------|
---------|-------------------|----------|

|---------------------|--------------------------|
|---------------------|--------------------------|
|-------5h7-7b9-7-5---|-----------5-7b9-7-7-5-7-5-|
|-7-7-7-------------7-|5-3-3-3-5h7----------------|
|---------------------|--------------------------|
|---------------------|--------------------------|

|------------------|--------------------|
|-----8-----8------|--12~~~~~~~~--------|
|-7/9---9-9---9~~~-|-b11~~~~~~~~--------|
|------------------|--------------------|
|------------------|--(use whammy bar)--|
|------------------|--------------------|

|-----|-----|-----|
|-----|-----|-----|
|-----|-----|-----|
|--7--|--3--|--5--|
|--7--|--3--|--5--|
|--5--|--1--|--3--|

|--8--8--5--5---|--1-----3------|
|--8--8--5--5---|--1-----3------|
|--9--9--6--6---|--2-----4------|
|-10-10--7--7---|--3-----5------|4x
|---------------|---------------|
|---------------|---------------|

|--5--5--5--5---|--1-----3------|
|--5--5--5--5---|--1-----3------|
|--6--6--6--6---|--2-----4------|
|--7--7--7--7---|--3-----5------|
|---------------|---------------|
|---------------|---------------|

|----------------|--------------|
|----------------|--------------|
|--5-----7-------|-------3------|
|--5--7--7--5----|--3-5--3-3--7-|
|--3--7--5--5----|--3-5--1-3--7-|
|-----5-----3----|--1-3----1--5-|
Comments