Sublime - Seed Chords & Tabs

 

Seed Chords & Tabs

Sublime Chords & Tabs

Version: 1 Type: Tab 0 ratings
1 star 2 stars 3 stars 4 stars 5 stars
comments

Seed Tab

          sublime
          seed
          submited by Luke Potter

          first fast riff: intro

           e-5555555555531111111111144444444444-------
           b-5555555555531111111111144444444444-------
           g-6666666666642222222222244444444444-------
           d-7777777777753333333333355555555555-------
           a-7777777777753333333333355555555555-------
           e-5555555555531111111111133333333333-------

          first ska part: slow

           e-------------------------
           b-5-x-5-x-5-x-5-----------
           g-5-x-5-x-5-x-5-----------
           d-5-x-5-x-5-x-5-----------
           a-------x-7-x-7-----------
           e-------------------------

          second ska part: faster

           e-555-x-555-x-333-x-333-x-333-x-333-x-555-x-555----
           b-666-x-666-x-333-x-333-x-555-x-555-x-555-x-555----
           g-777-x-777-x-444-x-444-x-555-x-555-x-555-x-555----
           d--------------------------------------------------
           a--------------------------------------------------
           e--------------------------------------------------

           e-111-x-111-x-333-x-333-xx-----------
           b-111-x-111-x-333-x-333-xx-----------
           g-222-x-222-x-444-x-444-xx-----------
           d------------------------------------
           a--------------------------5-let ring
           e------------------------------------

          back to the intro:

          third ska part: slow

           e-8-8--55--55-33----------
           b-8-8--55--66-33----------
           g-9-9--66--77-44----------
           d-1010-77-----------------
           a-------------------------
           e-------------------------

          second fast part:
[ Tab from: http://www.guitartabs.cc/tabs/s/sublime/seed_tab.html ]
           e---------------------------------------------
           b-55555---------------------------------------
           g-55555-2-2222-7-7777-6-66666-2-2222-44444----
           d-55555-2-2222-7-7777-5-55555-3-3333-55555----
           a-33333-0-0000-5-5555-5-55555-3-3333-55555----
           e-33333---------------3-33333-1-1111-33333----

           e-----------------------------
           b-22222-----------------------
           g-33333--44444--2-------------
           d-33333--33333--2-let ring----
           a-11111--33333--0-------------
           e--------11111----------------


          solo:

          e----------------------------------------------
          b------------13-15b-(15)-(15)-(15)-13----------
          g-14-14-14-14------------------------14h16p14--
          d----------------------------------------------
          a----------------------------------------------
          e----------------------------------------------

          e-------------------------------------------12----12-
          b-----------13-15b-(15)-(15)-13h15p13h15-15b---15b---
          g---------14-----------------------------------------
          d-15-15-15-------------------------------------------
          a----------------------------------------------------
          e----------------------------------------------------

          e----12---12---12---------------------------
          b-15b--15b--15b--15b -----------------------
          g--------------------------5-7-7b-7-5-------
          d----------------------7-7------------------
          a-------------------------------------------
          e-------------------------------------------

          e---------------------------------------------------------
          b---------------------------------------8----12-let ring--
          g---------5-7b-(7)-(7)-5h7p5h7------9-9---9--13-----------
          d-------7-----------------------/10-----------------------
          a-8-8-8---------------------------------------------------
          e---------------------------------------------------------

          back to the intro.
          you can figure out how it all comes together, that is the
          whole song.


          tabbed by Luke Potter
          e mail at: potter@ionline.net
Comments