Sublime - Santeria Chords & Tabs

 

Santeria Chords & Tabs

Sublime Chords & Tabs

Version: 17 Type: Tab 0 ratings
1 star 2 stars 3 stars 4 stars 5 stars
comments

Santeria Tab

Santeria-Sublime
This tab is 100% correct

Legend
h- hammer on
p- pull-off
L- legato slide
/- slide up
\- slide down
X- muted string


Intro.
|-----------------------------|
|-------------------9---------|
|----9-9---9----9-----9-9-----|
|----9-------7--7---------7L--|
|-7---------------------------|
|-----------------------------|


|--------------------|-------------------------------|
|--4-----------------|-------------5-----------------|
|-----5-------5------|------6--4-------6-------------|
|-------6------------|-6--6------6--------6-6-6h/7---|
|----------6-----4---|-4----------------------6h/7---|
|-4------------------|-------------------------------|


|----------------------------|------------------------------------------|
|----------7-----------------|--9--X--9---9---9-------------------------|
|-----(8)--8---8-------------|--9--X--9---9---9-------------------------|
|------------9---9-----------|-----X--9-------9-------------------------|
|--9-------------------------|------------------------------------------|
|--7----------------7--------|------------------------------------------|


|--4----4----4----4----------------|--4-------------------------|
|--4----4----4----4----------------|--5----5----5----5----------|
|--5--------------5----------------|--6----6----6----6----------|
|--6--------------6----------------|--6----6----6----6----------|
|----------------------------------|----------------------------|
|----------------------------------|----------------------------|


|--7----7----7-----7--------|--------------------------------|
|--7----7----7-----7--------|--9----9----9-----9-------------|
|--8----8----8-----8--------|--9----9----9-----9-------------|
|---------------------------|--9----9----9-----9-------------|
|---------------------------|--------------------------------|
|---------------------------|--------------------------------|


|--(5)-----------7---------------|----------------------------5---|
|-------5------7------7-------9--|--------------------5-----------|
|----------6-------------8-------|--9p\8-----8p\6-----6-----6-----|
|--------------------------------|----------------6---------------|
|--------------------------------|-------6------4-----------------|
|--------------------------------|--------------------------------|


|---------7------------|---------------------5-5----|
|-5-----------7----9---|--(9)-9---7-7---5------5----|
|----7-------------9---|--(9)-9---8-8---6-----------|
|----------------------|--(9)-9---8-8---6-----------|
|----------------------|----------------------------|
|----------------------|----------------------------|


|--X-X---X---7---7--|----------6---4---X-5-------|
|--X-X---X---7---7--|--9-X-----7---5---X-5-------|
|-------------------|--9-X-----8---6---X-6-------|
|-------------------|--9-X-----------------------|
|-------------------|-------6--------------------|
|-------------------|----------------------------|


|--5-X-X----7------------|--------------------------5---|
|--5-X-X----7-----9------|--------------------5---------|
|--6-X-X----8-----9------|--9p\8------8------6----6-----|
|-----------------9------|----------------6-------------|
|------------------------|-------6------4---------------|
|------------------------|------------------------------|

[ Tab from: http://www.guitartabs.cc/tabs/s/sublime/santeria_tab_ver_17.html ]
|-----------7--------------|-------------------------5---|
|--5------7-----7----------|---9---------------5-----5---|
|-----6----------------9---|----------8------6----6--6---|
|------------------9-------|---------------6-------------|
|--------------------------|-------6-----4---------------|
|--------------------------|-----------------------------|


|----------7----------|------------------------|
|--5-----7-----7------|--9------(9)L-----------|
|-----------------8---|--9------(9)L-----------|
|-----7---------------|--9------(9)L-----------|
|---------------------|------------------------|
|---------------------|------------------------|


|---------------------------------|--------------------|
|---------------------------------|--------------------|
|----------------9---11---11--9---|--8---8\6--8--(8)---|
|-----------9-11------------------|--------------------|
|--7---9/11-----------------------|--------------------|
|---------------------------------|--------------------|


|-----------------------------------|--------------------|
|-----------------------------------|----9L--------------|
|-6--6-4---4------------------------|----9L--------------|
|--------6---4---(4)-2-4-2----2-----|----9L--------------|
|---------------------------4---4---|--------------------|
|-----------------------------------|--------------------|


|----------------------------------|
|------------------------5----12---|
|--------------------4-6-----------|
|--------------4-5-6---------------|
|--------2-3-4---------------------|
|--2-3-4---------------------------|


|--9--------------------------------------------------|
|----12-9---------------------------------------------|
|---------11b--(11)-9-----9---------------------------|
|---------------------11----11p9---------9------------|
|--------------------------------11-9h11---11p\9--7---|
|-----------------------------------------------------|


|--------------------------------|
|--------------------------11b---|
|--------------------------11b---|
|---------10------10-------------|
|--9h/11------11--11-------------|
|--------------------------------|


|---------9--------------9---------|-----------------------------------|
|--(11)------9----11b-------9------|--11b---(11)-----------------------|
|--(11)---------9-11b----------9---|--11b---(11)-----11b---(11)--9--11-|
|----------------------------------|-----------------------------------|
|----------------------------------|-----------------------------------|
|----------------------------------|-----------------------------------|


|----------------|--------------------------|
|----------------|--9-----------------4-----|
|--9-------------|--9-----8-----6-----4-----|
|---------11-----|--9-----8-----6-----4-----|
|----------------|--7-----6-----4-----2-----|
|----------------|--------------------------|


|------------------------------|------------------------|
|---------4------0-------(0)---|--9-----------6-----4---|
|--2------4------1-------(1)---|--9-----8-----6-----4---|
|--2------4------2-------(2)---|--9-----8-----6-----4---|
|--0------2------2-------(2)---|--7-----6-----4-----2---|
|----------------0-------(0)---|------------------------|


|----------------------|
|------------------3---|
|--2-------4-------1---|
|--2-------4-------2---|
|--0-------2-------2---|
|------------------0---|
Comments