Sublime - Santeria Chords & Tabs

 

Santeria Chords & Tabs

Sublime Chords & Tabs

Version: 16 Type: Tab 0 ratings
1 star 2 stars 3 stars 4 stars 5 stars
comments

Santeria Tab

This is the absolute correct way to play this song.  Dont even pay attention to all
the other tabs.  Ive checked all of them out and though they may sound correct, it is
much easier to play it this way and it sounds just like the actual song.  Its actually
a very easy song when played the way its supposed to be.  the intro is done by picking
4 different chords like so.

use these chords during intro:

e-4-------4------4------7-|
b-5-------4------5------7-|
g-4-------5------6------8-|
d-6-------6------6------9-|
a-7-------6------4------9-|
E-4-------4------4------7-|


1st chord
e-----------------------------------|
b----------5------------5-----------|
g-------4----4-------4----4---------|
d---------------------------6-------|
a----7---------7--7-----------------|
E-----------------------------------|

2nd chord
e----------------------------------------------|
b---------------4------------------------------|
g-------5---5------5---------------------------|
d-----6---6-----------6------------------------|
a---6------------------------------------------|
E----------------------------------------------|


3rd chord
e-----------------------------------------------|
b-------------5---------------------------------|
g-------6---6---6-------------------------------|
d-----6---6-------6-----------------------------|
a---4-------------------------------------------|
E-----------------------------------------------|

4th chord
e----------------------------------------------|
b----------------------------------------------|
g--------7-------------------------------------|
d----------8-----------------------------------|
a-----9------9---------------------------------|
E---9----------9-------------------------------|

Use same chords as in intro and play reggae style up strokes

I dont practice santeria.....
[ Tab from: http://www.guitartabs.cc/tabs/s/sublime/santeria_tab_ver_16.html ]
e----------4-------4-------4-------4------------------|
b----------5-------5-------5-------5------------------|
g----------4-------4-------4-------4------------------|
d----------6-------6-------6-------6------------------|
a----------7-------7-------7-------7------------------|
E----------4-------4-------4-------4------------------|

I aint got no crystal ball...

e------------4--------------------------|
b------------4----------------------------------------|
g------------5----------------------------------------|
d------------6----------------------------------------|
a------------6----------------------------------------|
E------------4----------------------------------------|

Well I had a million dollars but I...

e----------4-------------------------------|
b----------5---------------------------------------------|
g----------6---------------------------------------------|
d----------6---------------------------------------------|
a----------4---------------------------------------------|
E----------4---------------------------------------------|

                    Id spent it all

e----------7----------------------------------|
b----------7------------------------------------------------|
g----------8------------------------------------------------|
d----------9------------------------------------------------|
a----------9------------------------------------------------|
E----------7------------------------------------------------|


Its the same for all the verses.

for the chorus use these chords:

e---5-----7--------------|
b---5-----7--------------|
g---6-----8--------------|
d---7-----9--------------|
a---7-----9--------------|
E---5-----7--------------|


What I really wanna know....

     1st         2nd                       1st
e-----5-----------7------------------------------------|
b-------5-----------7--------9------7-------5----------|
g---------6-----------8--------9--8--------6--6--------|repeat 4x
d-----------7-----------9-----------------7-----7------|
a----------------------------------------7-------------|
E------------------------------------------------------|


thats basically how the whole song goes.  I know the solo but i dont feel like tabbing
it out.  I learned it from the other tabs and theyre pretty accurate.  so if you want
the solo, go check out the other tabs.  this is an amazing song and i hope this tab
helps you.
Comments